  0
SECTION
  2
HEADER
  9
$ACADVER
  1
AC1009
  9
$ANGDIR
  70
0
  9
$CECOLOR
  62
256
  9
$CELTYPE
  6
BYLAYER
  9
$EXTMIN
  10
0.0
  20
0.0
  9
$EXTMAX
  10
5.025
  20
5.0681
  9
$FILLMODE
  70
1
  9
$MIRRTEXT
  70
0
  0
ENDSEC
  0
SECTION
  2
TABLES
  0
TABLE
  2
LAYER
  70
7
  0
LAYER
  2
Shapes
  70
64
  62
252
  6
CONTINUOUS
  0
LAYER
  2
Element
  70
64
  62
253
  6
CONTINUOUS
  0
LAYER
  2
Bus
  70
64
  62
180
  6
CONTINUOUS
  0
LAYER
  2
Net
  70
64
  62
50
  6
CONTINUOUS
  0
LAYER
  2
Pin
  70
64
  62
50
  6
CONTINUOUS
  0
LAYER
  2
Tables
  70
64
  62
253
  6
CONTINUOUS
  0
LAYER
  2
Titles
  70
64
  62
253
  6
CONTINUOUS
  0
ENDTAB
  0
ENDSEC
  0
SECTION
  2
ENTITIES
  0
POLYLINE
  8
Element
  6
CONTINUOUS
  66
1
  70
0
  40
0.0098
  41
0.0098
  0
VERTEX
  8
Element
  10
3.025
  20
4.9591
  42
0
  0
VERTEX
  8
Element
  10
3.05
  20
5.0091
  42
0
  0
SEQEND
  0
POLYLINE
  8
Element
  6
CONTINUOUS
  66
1
  70
0
  40
0.0049
  41
0.0049
  0
VERTEX
  8
Element
  10
3.0225
  20
4.9591
  42
1
  0
VERTEX
  8
Element
  10
3.0275
  20
4.9591
  42
1
  0
VERTEX
  8
Element
  10
3.0225
  20
4.9591
  42
1
  0
SEQEND
  0
POLYLINE
  8
Element
  6
CONTINUOUS
  66
1
  70
0
  40
0.0049
  41
0.0049
  0
VERTEX
  8
Element
  10
3.0475
  20
5.0091
  42
1
  0
VERTEX
  8
Element
  10
3.0525
  20
5.0091
  42
1
  0
VERTEX
  8
Element
  10
3.0475
  20
5.0091
  42
1
  0
SEQEND
  0
POLYLINE
  8
Element
  6
CONTINUOUS
  66
1
  70
0
  40
0.0098
  41
0.0098
  0
VERTEX
  8
Element
  10
2.975
  20
5.0591
  42
0
  0
VERTEX
  8
Element
  10
3.025
  20
4.9591
  42
0
  0
SEQEND
  0
POLYLINE
  8
Element
  6
CONTINUOUS
  66
1
  70
0
  40
0.0049
  41
0.0049
  0
VERTEX
  8
Element
  10
2.9725
  20
5.0591
  42
1
  0
VERTEX
  8
Element
  10
2.9775
  20
5.0591
  42
1
  0
VERTEX
  8
Element
  10
2.9725
  20
5.0591
  42
1
  0
SEQEND
  0
POLYLINE
  8
Element
  6
CONTINUOUS
  66
1
  70
0
  40
0.0049
  41
0.0049
  0
VERTEX
  8
Element
  10
3.0225
  20
4.9591
  42
1
  0
VERTEX
  8
Element
  10
3.0275
  20
4.9591
  42
1
  0
VERTEX
  8
Element
  10
3.0225
  20
4.9591
  42
1
  0
SEQEND
  0
POLYLINE
  8
Element
  6
CONTINUOUS
  66
1
  70
0
  40
0.0098
  41
0.0098
  0
VERTEX
  8
Element
  10
2.925
  20
4.9591
  42
0
  0
VERTEX
  8
Element
  10
2.975
  20
5.0591
  42
0
  0
SEQEND
  0
POLYLINE
  8
Element
  6
CONTINUOUS
  66
1
  70
0
  40
0.0049
  41
0.0049
  0
VERTEX
  8
Element
  10
2.9225
  20
4.9591
  42
1
  0
VERTEX
  8
Element
  10
2.9275
  20
4.9591
  42
1
  0
VERTEX
  8
Element
  10
2.9225
  20
4.9591
  42
1
  0
SEQEND
  0
POLYLINE
  8
Element
  6
CONTINUOUS
  66
1
  70
0
  40
0.0049
  41
0.0049
  0
VERTEX
  8
Element
  10
2.9725
  20
5.0591
  42
1
  0
VERTEX
  8
Element
  10
2.9775
  20
5.0591
  42
1
  0
VERTEX
  8
Element
  10
2.9725
  20
5.0591
  42
1
  0
SEQEND
  0
POLYLINE
  8
Element
  6
CONTINUOUS
  66
1
  70
0
  40
0.0098
  41
0.0098
  0
VERTEX
  8
Element
  10
2.875
  20
5.0591
  42
0
  0
VERTEX
  8
Element
  10
2.925
  20
4.9591
  42
0
  0
SEQEND
  0
POLYLINE
  8
Element
  6
CONTINUOUS
  66
1
  70
0
  40
0.0049
  41
0.0049
  0
VERTEX
  8
Element
  10
2.8725
  20
5.0591
  42
1
  0
VERTEX
  8
Element
  10
2.8775
  20
5.0591
  42
1
  0
VERTEX
  8
Element
  10
2.8725
  20
5.0591
  42
1
  0
SEQEND
  0
POLYLINE
  8
Element
  6
CONTINUOUS
  66
1
  70
0
  40
0.0049
  41
0.0049
  0
VERTEX
  8
Element
  10
2.9225
  20
4.9591
  42
1
  0
VERTEX
  8
Element
  10
2.9275
  20
4.9591
  42
1
  0
VERTEX
  8
Element
  10
2.9225
  20
4.9591
  42
1
  0
SEQEND
  0
POLYLINE
  8
Element
  6
CONTINUOUS
  66
1
  70
0
  40
0.0098
  41
0.0098
  0
VERTEX
  8
Element
  10
2.825
  20
4.9591
  42
0
  0
VERTEX
  8
Element
  10
2.875
  20
5.0591
  42
0
  0
SEQEND
  0
POLYLINE
  8
Element
  6
CONTINUOUS
  66
1
  70
0
  40
0.0049
  41
0.0049
  0
VERTEX
  8
Element
  10
2.8225
  20
4.9591
  42
1
  0
VERTEX
  8
Element
  10
2.8275
  20
4.9591
  42
1
  0
VERTEX
  8
Element
  10
2.8225
  20
4.9591
  42
1
  0
SEQEND
  0
POLYLINE
  8
Element
  6
CONTINUOUS
  66
1
  70
0
  40
0.0049
  41
0.0049
  0
VERTEX
  8
Element
  10
2.8725
  20
5.0591
  42
1
  0
VERTEX
  8
Element
  10
2.8775
  20
5.0591
  42
1
  0
VERTEX
  8
Element
  10
2.8725
  20
5.0591
  42
1
  0
SEQEND
  0
POLYLINE
  8
Element
  6
CONTINUOUS
  66
1
  70
0
  40
0.0098
  41
0.0098
  0
VERTEX
  8
Element
  10
2.775
  20
5.0591
  42
0
  0
VERTEX
  8
Element
  10
2.825
  20
4.9591
  42
0
  0
SEQEND
  0
POLYLINE
  8
Element
  6
CONTINUOUS
  66
1
  70
0
  40
0.0049
  41
0.0049
  0
VERTEX
  8
Element
  10
2.7725
  20
5.0591
  42
1
  0
VERTEX
  8
Element
  10
2.7775
  20
5.0591
  42
1
  0
VERTEX
  8
Element
  10
2.7725
  20
5.0591
  42
1
  0
SEQEND
  0
POLYLINE
  8
Element
  6
CONTINUOUS
  66
1
  70
0
  40
0.0049
  41
0.0049
  0
VERTEX
  8
Element
  10
2.8225
  20
4.9591
  42
1
  0
VERTEX
  8
Element
  10
2.8275
  20
4.9591
  42
1
  0
VERTEX
  8
Element
  10
2.8225
  20
4.9591
  42
1
  0
SEQEND
  0
POLYLINE
  8
Element
  6
CONTINUOUS
  66
1
  70
0
  40
0.0098
  41
0.0098
  0
VERTEX
  8
Element
  10
2.75
  20
5.0091
  42
0
  0
VERTEX
  8
Element
  10
2.775
  20
5.0591
  42
0
  0
SEQEND
  0
POLYLINE
  8
Element
  6
CONTINUOUS
  66
1
  70
0
  40
0.0049
  41
0.0049
  0
VERTEX
  8
Element
  10
2.7475
  20
5.0091
  42
1
  0
VERTEX
  8
Element
  10
2.7525
  20
5.0091
  42
1
  0
VERTEX
  8
Element
  10
2.7475
  20
5.0091
  42
1
  0
SEQEND
  0
POLYLINE
  8
Element
  6
CONTINUOUS
  66
1
  70
0
  40
0.0049
  41
0.0049
  0
VERTEX
  8
Element
  10
2.7725
  20
5.0591
  42
1
  0
VERTEX
  8
Element
  10
2.7775
  20
5.0591
  42
1
  0
VERTEX
  8
Element
  10
2.7725
  20
5.0591
  42
1
  0
SEQEND
  0
POLYLINE
  8
Element
  6
CONTINUOUS
  66
1
  70
0
  40
0.0098
  41
0.0098
  0
VERTEX
  8
Element
  10
3.0
  20
3.6591
  42
0
  0
VERTEX
  8
Element
  10
3.025
  20
3.7091
  42
0
  0
SEQEND
  0
POLYLINE
  8
Element
  6
CONTINUOUS
  66
1
  70
0
  40
0.0049
  41
0.0049
  0
VERTEX
  8
Element
  10
2.9975
  20
3.6591
  42
1
  0
VERTEX
  8
Element
  10
3.0025
  20
3.6591
  42
1
  0
VERTEX
  8
Element
  10
2.9975
  20
3.6591
  42
1
  0
SEQEND
  0
POLYLINE
  8
Element
  6
CONTINUOUS
  66
1
  70
0
  40
0.0049
  41
0.0049
  0
VERTEX
  8
Element
  10
3.0225
  20
3.7091
  42
1
  0
VERTEX
  8
Element
  10
3.0275
  20
3.7091
  42
1
  0
VERTEX
  8
Element
  10
3.0225
  20
3.7091
  42
1
  0
SEQEND
  0
POLYLINE
  8
Element
  6
CONTINUOUS
  66
1
  70
0
  40
0.0098
  41
0.0098
  0
VERTEX
  8
Element
  10
2.95
  20
3.7591
  42
0
  0
VERTEX
  8
Element
  10
3.0
  20
3.6591
  42
0
  0
SEQEND
  0
POLYLINE
  8
Element
  6
CONTINUOUS
  66
1
  70
0
  40
0.0049
  41
0.0049
  0
VERTEX
  8
Element
  10
2.9475
  20
3.7591
  42
1
  0
VERTEX
  8
Element
  10
2.9525
  20
3.7591
  42
1
  0
VERTEX
  8
Element
  10
2.9475
  20
3.7591
  42
1
  0
SEQEND
  0
POLYLINE
  8
Element
  6
CONTINUOUS
  66
1
  70
0
  40
0.0049
  41
0.0049
  0
VERTEX
  8
Element
  10
2.9975
  20
3.6591
  42
1
  0
VERTEX
  8
Element
  10
3.0025
  20
3.6591
  42
1
  0
VERTEX
  8
Element
  10
2.9975
  20
3.6591
  42
1
  0
SEQEND
  0
POLYLINE
  8
Element
  6
CONTINUOUS
  66
1
  70
0
  40
0.0098
  41
0.0098
  0
VERTEX
  8
Element
  10
2.9
  20
3.6591
  42
0
  0
VERTEX
  8
Element
  10
2.95
  20
3.7591
  42
0
  0
SEQEND
  0
POLYLINE
  8
Element
  6
CONTINUOUS
  66
1
  70
0
  40
0.0049
  41
0.0049
  0
VERTEX
  8
Element
  10
2.8975
  20
3.6591
  42
1
  0
VERTEX
  8
Element
  10
2.9025
  20
3.6591
  42
1
  0
VERTEX
  8
Element
  10
2.8975
  20
3.6591
  42
1
  0
SEQEND
  0
POLYLINE
  8
Element
  6
CONTINUOUS
  66
1
  70
0
  40
0.0049
  41
0.0049
  0
VERTEX
  8
Element
  10
2.9475
  20
3.7591
  42
1
  0
VERTEX
  8
Element
  10
2.9525
  20
3.7591
  42
1
  0
VERTEX
  8
Element
  10
2.9475
  20
3.7591
  42
1
  0
SEQEND
  0
POLYLINE
  8
Element
  6
CONTINUOUS
  66
1
  70
0
  40
0.0098
  41
0.0098
  0
VERTEX
  8
Element
  10
2.85
  20
3.7591
  42
0
  0
VERTEX
  8
Element
  10
2.9
  20
3.6591
  42
0
  0
SEQEND
  0
POLYLINE
  8
Element
  6
CONTINUOUS
  66
1
  70
0
  40
0.0049
  41
0.0049
  0
VERTEX
  8
Element
  10
2.8475
  20
3.7591
  42
1
  0
VERTEX
  8
Element
  10
2.8525
  20
3.7591
  42
1
  0
VERTEX
  8
Element
  10
2.8475
  20
3.7591
  42
1
  0
SEQEND
  0
POLYLINE
  8
Element
  6
CONTINUOUS
  66
1
  70
0
  40
0.0049
  41
0.0049
  0
VERTEX
  8
Element
  10
2.8975
  20
3.6591
  42
1
  0
VERTEX
  8
Element
  10
2.9025
  20
3.6591
  42
1
  0
VERTEX
  8
Element
  10
2.8975
  20
3.6591
  42
1
  0
SEQEND
  0
POLYLINE
  8
Element
  6
CONTINUOUS
  66
1
  70
0
  40
0.0098
  41
0.0098
  0
VERTEX
  8
Element
  10
2.8
  20
3.6591
  42
0
  0
VERTEX
  8
Element
  10
2.85
  20
3.7591
  42
0
  0
SEQEND
  0
POLYLINE
  8
Element
  6
CONTINUOUS
  66
1
  70
0
  40
0.0049
  41
0.0049
  0
VERTEX
  8
Element
  10
2.7975
  20
3.6591
  42
1
  0
VERTEX
  8
Element
  10
2.8025
  20
3.6591
  42
1
  0
VERTEX
  8
Element
  10
2.7975
  20
3.6591
  42
1
  0
SEQEND
  0
POLYLINE
  8
Element
  6
CONTINUOUS
  66
1
  70
0
  40
0.0049
  41
0.0049
  0
VERTEX
  8
Element
  10
2.8475
  20
3.7591
  42
1
  0
VERTEX
  8
Element
  10
2.8525
  20
3.7591
  42
1
  0
VERTEX
  8
Element
  10
2.8475
  20
3.7591
  42
1
  0
SEQEND
  0
POLYLINE
  8
Element
  6
CONTINUOUS
  66
1
  70
0
  40
0.0098
  41
0.0098
  0
VERTEX
  8
Element
  10
2.75
  20
3.7591
  42
0
  0
VERTEX
  8
Element
  10
2.8
  20
3.6591
  42
0
  0
SEQEND
  0
POLYLINE
  8
Element
  6
CONTINUOUS
  66
1
  70
0
  40
0.0049
  41
0.0049
  0
VERTEX
  8
Element
  10
2.7475
  20
3.7591
  42
1
  0
VERTEX
  8
Element
  10
2.7525
  20
3.7591
  42
1
  0
VERTEX
  8
Element
  10
2.7475
  20
3.7591
  42
1
  0
SEQEND
  0
POLYLINE
  8
Element
  6
CONTINUOUS
  66
1
  70
0
  40
0.0049
  41
0.0049
  0
VERTEX
  8
Element
  10
2.7975
  20
3.6591
  42
1
  0
VERTEX
  8
Element
  10
2.8025
  20
3.6591
  42
1
  0
VERTEX
  8
Element
  10
2.7975
  20
3.6591
  42
1
  0
SEQEND
  0
POLYLINE
  8
Element
  6
CONTINUOUS
  66
1
  70
0
  40
0.0098
  41
0.0098
  0
VERTEX
  8
Element
  10
2.725
  20
3.7091
  42
0
  0
VERTEX
  8
Element
  10
2.75
  20
3.7591
  42
0
  0
SEQEND
  0
POLYLINE
  8
Element
  6
CONTINUOUS
  66
1
  70
0
  40
0.0049
  41
0.0049
  0
VERTEX
  8
Element
  10
2.7225
  20
3.7091
  42
1
  0
VERTEX
  8
Element
  10
2.7275
  20
3.7091
  42
1
  0
VERTEX
  8
Element
  10
2.7225
  20
3.7091
  42
1
  0
SEQEND
  0
POLYLINE
  8
Element
  6
CONTINUOUS
  66
1
  70
0
  40
0.0049
  41
0.0049
  0
VERTEX
  8
Element
  10
2.7475
  20
3.7591
  42
1
  0
VERTEX
  8
Element
  10
2.7525
  20
3.7591
  42
1
  0
VERTEX
  8
Element
  10
2.7475
  20
3.7591
  42
1
  0
SEQEND
  0
POLYLINE
  8
Element
  6
CONTINUOUS
  66
1
  70
0
  40
0.0098
  41
0.0098
  0
VERTEX
  8
Element
  10
2.875
  20
2.3341
  42
0
  0
VERTEX
  8
Element
  10
2.9
  20
2.3841
  42
0
  0
SEQEND
  0
POLYLINE
  8
Element
  6
CONTINUOUS
  66
1
  70
0
  40
0.0049
  41
0.0049
  0
VERTEX
  8
Element
  10
2.8725
  20
2.3341
  42
1
  0
VERTEX
  8
Element
  10
2.8775
  20
2.3341
  42
1
  0
VERTEX
  8
Element
  10
2.8725
  20
2.3341
  42
1
  0
SEQEND
  0
POLYLINE
  8
Element
  6
CONTINUOUS
  66
1
  70
0
  40
0.0049
  41
0.0049
  0
VERTEX
  8
Element
  10
2.8975
  20
2.3841
  42
1
  0
VERTEX
  8
Element
  10
2.9025
  20
2.3841
  42
1
  0
VERTEX
  8
Element
  10
2.8975
  20
2.3841
  42
1
  0
SEQEND
  0
POLYLINE
  8
Element
  6
CONTINUOUS
  66
1
  70
0
  40
0.0098
  41
0.0098
  0
VERTEX
  8
Element
  10
2.825
  20
2.4341
  42
0
  0
VERTEX
  8
Element
  10
2.875
  20
2.3341
  42
0
  0
SEQEND
  0
POLYLINE
  8
Element
  6
CONTINUOUS
  66
1
  70
0
  40
0.0049
  41
0.0049
  0
VERTEX
  8
Element
  10
2.8225
  20
2.4341
  42
1
  0
VERTEX
  8
Element
  10
2.8275
  20
2.4341
  42
1
  0
VERTEX
  8
Element
  10
2.8225
  20
2.4341
  42
1
  0
SEQEND
  0
POLYLINE
  8
Element
  6
CONTINUOUS
  66
1
  70
0
  40
0.0049
  41
0.0049
  0
VERTEX
  8
Element
  10
2.8725
  20
2.3341
  42
1
  0
VERTEX
  8
Element
  10
2.8775
  20
2.3341
  42
1
  0
VERTEX
  8
Element
  10
2.8725
  20
2.3341
  42
1
  0
SEQEND
  0
POLYLINE
  8
Element
  6
CONTINUOUS
  66
1
  70
0
  40
0.0098
  41
0.0098
  0
VERTEX
  8
Element
  10
2.775
  20
2.3341
  42
0
  0
VERTEX
  8
Element
  10
2.825
  20
2.4341
  42
0
  0
SEQEND
  0
POLYLINE
  8
Element
  6
CONTINUOUS
  66
1
  70
0
  40
0.0049
  41
0.0049
  0
VERTEX
  8
Element
  10
2.7725
  20
2.3341
  42
1
  0
VERTEX
  8
Element
  10
2.7775
  20
2.3341
  42
1
  0
VERTEX
  8
Element
  10
2.7725
  20
2.3341
  42
1
  0
SEQEND
  0
POLYLINE
  8
Element
  6
CONTINUOUS
  66
1
  70
0
  40
0.0049
  41
0.0049
  0
VERTEX
  8
Element
  10
2.8225
  20
2.4341
  42
1
  0
VERTEX
  8
Element
  10
2.8275
  20
2.4341
  42
1
  0
VERTEX
  8
Element
  10
2.8225
  20
2.4341
  42
1
  0
SEQEND
  0
POLYLINE
  8
Element
  6
CONTINUOUS
  66
1
  70
0
  40
0.0098
  41
0.0098
  0
VERTEX
  8
Element
  10
2.725
  20
2.4341
  42
0
  0
VERTEX
  8
Element
  10
2.775
  20
2.3341
  42
0
  0
SEQEND
  0
POLYLINE
  8
Element
  6
CONTINUOUS
  66
1
  70
0
  40
0.0049
  41
0.0049
  0
VERTEX
  8
Element
  10
2.7225
  20
2.4341
  42
1
  0
VERTEX
  8
Element
  10
2.7275
  20
2.4341
  42
1
  0
VERTEX
  8
Element
  10
2.7225
  20
2.4341
  42
1
  0
SEQEND
  0
POLYLINE
  8
Element
  6
CONTINUOUS
  66
1
  70
0
  40
0.0049
  41
0.0049
  0
VERTEX
  8
Element
  10
2.7725
  20
2.3341
  42
1
  0
VERTEX
  8
Element
  10
2.7775
  20
2.3341
  42
1
  0
VERTEX
  8
Element
  10
2.7725
  20
2.3341
  42
1
  0
SEQEND
  0
POLYLINE
  8
Element
  6
CONTINUOUS
  66
1
  70
0
  40
0.0098
  41
0.0098
  0
VERTEX
  8
Element
  10
2.675
  20
2.3341
  42
0
  0
VERTEX
  8
Element
  10
2.725
  20
2.4341
  42
0
  0
SEQEND
  0
POLYLINE
  8
Element
  6
CONTINUOUS
  66
1
  70
0
  40
0.0049
  41
0.0049
  0
VERTEX
  8
Element
  10
2.6725
  20
2.3341
  42
1
  0
VERTEX
  8
Element
  10
2.6775
  20
2.3341
  42
1
  0
VERTEX
  8
Element
  10
2.6725
  20
2.3341
  42
1
  0
SEQEND
  0
POLYLINE
  8
Element
  6
CONTINUOUS
  66
1
  70
0
  40
0.0049
  41
0.0049
  0
VERTEX
  8
Element
  10
2.7225
  20
2.4341
  42
1
  0
VERTEX
  8
Element
  10
2.7275
  20
2.4341
  42
1
  0
VERTEX
  8
Element
  10
2.7225
  20
2.4341
  42
1
  0
SEQEND
  0
POLYLINE
  8
Element
  6
CONTINUOUS
  66
1
  70
0
  40
0.0098
  41
0.0098
  0
VERTEX
  8
Element
  10
2.625
  20
2.4341
  42
0
  0
VERTEX
  8
Element
  10
2.675
  20
2.3341
  42
0
  0
SEQEND
  0
POLYLINE
  8
Element
  6
CONTINUOUS
  66
1
  70
0
  40
0.0049
  41
0.0049
  0
VERTEX
  8
Element
  10
2.6225
  20
2.4341
  42
1
  0
VERTEX
  8
Element
  10
2.6275
  20
2.4341
  42
1
  0
VERTEX
  8
Element
  10
2.6225
  20
2.4341
  42
1
  0
SEQEND
  0
POLYLINE
  8
Element
  6
CONTINUOUS
  66
1
  70
0
  40
0.0049
  41
0.0049
  0
VERTEX
  8
Element
  10
2.6725
  20
2.3341
  42
1
  0
VERTEX
  8
Element
  10
2.6775
  20
2.3341
  42
1
  0
VERTEX
  8
Element
  10
2.6725
  20
2.3341
  42
1
  0
SEQEND
  0
POLYLINE
  8
Element
  6
CONTINUOUS
  66
1
  70
0
  40
0.0098
  41
0.0098
  0
VERTEX
  8
Element
  10
2.6
  20
2.3841
  42
0
  0
VERTEX
  8
Element
  10
2.625
  20
2.4341
  42
0
  0
SEQEND
  0
POLYLINE
  8
Element
  6
CONTINUOUS
  66
1
  70
0
  40
0.0049
  41
0.0049
  0
VERTEX
  8
Element
  10
2.5975
  20
2.3841
  42
1
  0
VERTEX
  8
Element
  10
2.6025
  20
2.3841
  42
1
  0
VERTEX
  8
Element
  10
2.5975
  20
2.3841
  42
1
  0
SEQEND
  0
POLYLINE
  8
Element
  6
CONTINUOUS
  66
1
  70
0
  40
0.0049
  41
0.0049
  0
VERTEX
  8
Element
  10
2.6225
  20
2.4341
  42
1
  0
VERTEX
  8
Element
  10
2.6275
  20
2.4341
  42
1
  0
VERTEX
  8
Element
  10
2.6225
  20
2.4341
  42
1
  0
SEQEND
  0
POLYLINE
  8
Element
  6
CONTINUOUS
  66
1
  70
0
  40
0.0098
  41
0.0098
  0
VERTEX
  8
Element
  10
2.85
  20
1.1091
  42
0
  0
VERTEX
  8
Element
  10
2.875
  20
1.1591
  42
0
  0
SEQEND
  0
POLYLINE
  8
Element
  6
CONTINUOUS
  66
1
  70
0
  40
0.0049
  41
0.0049
  0
VERTEX
  8
Element
  10
2.8475
  20
1.1091
  42
1
  0
VERTEX
  8
Element
  10
2.8525
  20
1.1091
  42
1
  0
VERTEX
  8
Element
  10
2.8475
  20
1.1091
  42
1
  0
SEQEND
  0
POLYLINE
  8
Element
  6
CONTINUOUS
  66
1
  70
0
  40
0.0049
  41
0.0049
  0
VERTEX
  8
Element
  10
2.8725
  20
1.1591
  42
1
  0
VERTEX
  8
Element
  10
2.8775
  20
1.1591
  42
1
  0
VERTEX
  8
Element
  10
2.8725
  20
1.1591
  42
1
  0
SEQEND
  0
POLYLINE
  8
Element
  6
CONTINUOUS
  66
1
  70
0
  40
0.0098
  41
0.0098
  0
VERTEX
  8
Element
  10
2.8
  20
1.2091
  42
0
  0
VERTEX
  8
Element
  10
2.85
  20
1.1091
  42
0
  0
SEQEND
  0
POLYLINE
  8
Element
  6
CONTINUOUS
  66
1
  70
0
  40
0.0049
  41
0.0049
  0
VERTEX
  8
Element
  10
2.7975
  20
1.2091
  42
1
  0
VERTEX
  8
Element
  10
2.8025
  20
1.2091
  42
1
  0
VERTEX
  8
Element
  10
2.7975
  20
1.2091
  42
1
  0
SEQEND
  0
POLYLINE
  8
Element
  6
CONTINUOUS
  66
1
  70
0
  40
0.0049
  41
0.0049
  0
VERTEX
  8
Element
  10
2.8475
  20
1.1091
  42
1
  0
VERTEX
  8
Element
  10
2.8525
  20
1.1091
  42
1
  0
VERTEX
  8
Element
  10
2.8475
  20
1.1091
  42
1
  0
SEQEND
  0
POLYLINE
  8
Element
  6
CONTINUOUS
  66
1
  70
0
  40
0.0098
  41
0.0098
  0
VERTEX
  8
Element
  10
2.75
  20
1.1091
  42
0
  0
VERTEX
  8
Element
  10
2.8
  20
1.2091
  42
0
  0
SEQEND
  0
POLYLINE
  8
Element
  6
CONTINUOUS
  66
1
  70
0
  40
0.0049
  41
0.0049
  0
VERTEX
  8
Element
  10
2.7475
  20
1.1091
  42
1
  0
VERTEX
  8
Element
  10
2.7525
  20
1.1091
  42
1
  0
VERTEX
  8
Element
  10
2.7475
  20
1.1091
  42
1
  0
SEQEND
  0
POLYLINE
  8
Element
  6
CONTINUOUS
  66
1
  70
0
  40
0.0049
  41
0.0049
  0
VERTEX
  8
Element
  10
2.7975
  20
1.2091
  42
1
  0
VERTEX
  8
Element
  10
2.8025
  20
1.2091
  42
1
  0
VERTEX
  8
Element
  10
2.7975
  20
1.2091
  42
1
  0
SEQEND
  0
POLYLINE
  8
Element
  6
CONTINUOUS
  66
1
  70
0
  40
0.0098
  41
0.0098
  0
VERTEX
  8
Element
  10
2.7
  20
1.2091
  42
0
  0
VERTEX
  8
Element
  10
2.75
  20
1.1091
  42
0
  0
SEQEND
  0
POLYLINE
  8
Element
  6
CONTINUOUS
  66
1
  70
0
  40
0.0049
  41
0.0049
  0
VERTEX
  8
Element
  10
2.6975
  20
1.2091
  42
1
  0
VERTEX
  8
Element
  10
2.7025
  20
1.2091
  42
1
  0
VERTEX
  8
Element
  10
2.6975
  20
1.2091
  42
1
  0
SEQEND
  0
POLYLINE
  8
Element
  6
CONTINUOUS
  66
1
  70
0
  40
0.0049
  41
0.0049
  0
VERTEX
  8
Element
  10
2.7475
  20
1.1091
  42
1
  0
VERTEX
  8
Element
  10
2.7525
  20
1.1091
  42
1
  0
VERTEX
  8
Element
  10
2.7475
  20
1.1091
  42
1
  0
SEQEND
  0
POLYLINE
  8
Element
  6
CONTINUOUS
  66
1
  70
0
  40
0.0098
  41
0.0098
  0
VERTEX
  8
Element
  10
2.65
  20
1.1091
  42
0
  0
VERTEX
  8
Element
  10
2.7
  20
1.2091
  42
0
  0
SEQEND
  0
POLYLINE
  8
Element
  6
CONTINUOUS
  66
1
  70
0
  40
0.0049
  41
0.0049
  0
VERTEX
  8
Element
  10
2.6475
  20
1.1091
  42
1
  0
VERTEX
  8
Element
  10
2.6525
  20
1.1091
  42
1
  0
VERTEX
  8
Element
  10
2.6475
  20
1.1091
  42
1
  0
SEQEND
  0
POLYLINE
  8
Element
  6
CONTINUOUS
  66
1
  70
0
  40
0.0049
  41
0.0049
  0
VERTEX
  8
Element
  10
2.6975
  20
1.2091
  42
1
  0
VERTEX
  8
Element
  10
2.7025
  20
1.2091
  42
1
  0
VERTEX
  8
Element
  10
2.6975
  20
1.2091
  42
1
  0
SEQEND
  0
POLYLINE
  8
Element
  6
CONTINUOUS
  66
1
  70
0
  40
0.0098
  41
0.0098
  0
VERTEX
  8
Element
  10
2.6
  20
1.2091
  42
0
  0
VERTEX
  8
Element
  10
2.65
  20
1.1091
  42
0
  0
SEQEND
  0
POLYLINE
  8
Element
  6
CONTINUOUS
  66
1
  70
0
  40
0.0049
  41
0.0049
  0
VERTEX
  8
Element
  10
2.5975
  20
1.2091
  42
1
  0
VERTEX
  8
Element
  10
2.6025
  20
1.2091
  42
1
  0
VERTEX
  8
Element
  10
2.5975
  20
1.2091
  42
1
  0
SEQEND
  0
POLYLINE
  8
Element
  6
CONTINUOUS
  66
1
  70
0
  40
0.0049
  41
0.0049
  0
VERTEX
  8
Element
  10
2.6475
  20
1.1091
  42
1
  0
VERTEX
  8
Element
  10
2.6525
  20
1.1091
  42
1
  0
VERTEX
  8
Element
  10
2.6475
  20
1.1091
  42
1
  0
SEQEND
  0
POLYLINE
  8
Element
  6
CONTINUOUS
  66
1
  70
0
  40
0.0098
  41
0.0098
  0
VERTEX
  8
Element
  10
2.575
  20
1.1591
  42
0
  0
VERTEX
  8
Element
  10
2.6
  20
1.2091
  42
0
  0
SEQEND
  0
POLYLINE
  8
Element
  6
CONTINUOUS
  66
1
  70
0
  40
0.0049
  41
0.0049
  0
VERTEX
  8
Element
  10
2.5725
  20
1.1591
  42
1
  0
VERTEX
  8
Element
  10
2.5775
  20
1.1591
  42
1
  0
VERTEX
  8
Element
  10
2.5725
  20
1.1591
  42
1
  0
SEQEND
  0
POLYLINE
  8
Element
  6
CONTINUOUS
  66
1
  70
0
  40
0.0049
  41
0.0049
  0
VERTEX
  8
Element
  10
2.5975
  20
1.2091
  42
1
  0
VERTEX
  8
Element
  10
2.6025
  20
1.2091
  42
1
  0
VERTEX
  8
Element
  10
2.5975
  20
1.2091
  42
1
  0
SEQEND
  0
POLYLINE
  8
Element
  6
CONTINUOUS
  66
1
  70
0
  40
0.0098
  41
0.0098
  0
VERTEX
  8
Element
  10
0.175
  20
4.4341
  42
0
  0
VERTEX
  8
Element
  10
0.225
  20
4.3841
  42
0
  0
SEQEND
  0
POLYLINE
  8
Element
  6
CONTINUOUS
  66
1
  70
0
  40
0.0049
  41
0.0049
  0
VERTEX
  8
Element
  10
0.1725
  20
4.4341
  42
1
  0
VERTEX
  8
Element
  10
0.1775
  20
4.4341
  42
1
  0
VERTEX
  8
Element
  10
0.1725
  20
4.4341
  42
1
  0
SEQEND
  0
POLYLINE
  8
Element
  6
CONTINUOUS
  66
1
  70
0
  40
0.0049
  41
0.0049
  0
VERTEX
  8
Element
  10
0.2225
  20
4.3841
  42
1
  0
VERTEX
  8
Element
  10
0.2275
  20
4.3841
  42
1
  0
VERTEX
  8
Element
  10
0.2225
  20
4.3841
  42
1
  0
SEQEND
  0
POLYLINE
  8
Element
  6
CONTINUOUS
  66
1
  70
0
  40
0.0098
  41
0.0098
  0
VERTEX
  8
Element
  10
0.175
  20
4.3341
  42
0
  0
VERTEX
  8
Element
  10
0.225
  20
4.3841
  42
0
  0
SEQEND
  0
POLYLINE
  8
Element
  6
CONTINUOUS
  66
1
  70
0
  40
0.0049
  41
0.0049
  0
VERTEX
  8
Element
  10
0.1725
  20
4.3341
  42
1
  0
VERTEX
  8
Element
  10
0.1775
  20
4.3341
  42
1
  0
VERTEX
  8
Element
  10
0.1725
  20
4.3341
  42
1
  0
SEQEND
  0
POLYLINE
  8
Element
  6
CONTINUOUS
  66
1
  70
0
  40
0.0049
  41
0.0049
  0
VERTEX
  8
Element
  10
0.2225
  20
4.3841
  42
1
  0
VERTEX
  8
Element
  10
0.2275
  20
4.3841
  42
1
  0
VERTEX
  8
Element
  10
0.2225
  20
4.3841
  42
1
  0
SEQEND
  0
POLYLINE
  8
Element
  6
CONTINUOUS
  66
1
  70
0
  40
0.0098
  41
0.0098
  0
VERTEX
  8
Element
  10
0.225
  20
4.3841
  42
0
  0
VERTEX
  8
Element
  10
0.4
  20
4.3841
  42
0
  0
SEQEND
  0
POLYLINE
  8
Element
  6
CONTINUOUS
  66
1
  70
0
  40
0.0049
  41
0.0049
  0
VERTEX
  8
Element
  10
0.2225
  20
4.3841
  42
1
  0
VERTEX
  8
Element
  10
0.2275
  20
4.3841
  42
1
  0
VERTEX
  8
Element
  10
0.2225
  20
4.3841
  42
1
  0
SEQEND
  0
POLYLINE
  8
Element
  6
CONTINUOUS
  66
1
  70
0
  40
0.0049
  41
0.0049
  0
VERTEX
  8
Element
  10
0.3975
  20
4.3841
  42
1
  0
VERTEX
  8
Element
  10
0.4025
  20
4.3841
  42
1
  0
VERTEX
  8
Element
  10
0.3975
  20
4.3841
  42
1
  0
SEQEND
  0
POLYLINE
  8
Element
  6
CONTINUOUS
  66
1
  70
0
  40
0.0098
  41
0.0098
  0
VERTEX
  8
Element
  10
0.0
  20
4.3341
  42
0
  0
VERTEX
  8
Element
  10
0.0
  20
4.4341
  42
0
  0
SEQEND
  0
POLYLINE
  8
Element
  6
CONTINUOUS
  66
1
  70
0
  40
0.0049
  41
0.0049
  0
VERTEX
  8
Element
  10
-0.0025
  20
4.3341
  42
1
  0
VERTEX
  8
Element
  10
0.0025
  20
4.3341
  42
1
  0
VERTEX
  8
Element
  10
-0.0025
  20
4.3341
  42
1
  0
SEQEND
  0
POLYLINE
  8
Element
  6
CONTINUOUS
  66
1
  70
0
  40
0.0049
  41
0.0049
  0
VERTEX
  8
Element
  10
-0.0025
  20
4.4341
  42
1
  0
VERTEX
  8
Element
  10
0.0025
  20
4.4341
  42
1
  0
VERTEX
  8
Element
  10
-0.0025
  20
4.4341
  42
1
  0
SEQEND
  0
POLYLINE
  8
Element
  6
CONTINUOUS
  66
1
  70
0
  40
0.0098
  41
0.0098
  0
VERTEX
  8
Element
  10
0.0
  20
4.4341
  42
0
  0
VERTEX
  8
Element
  10
0.4
  20
4.4341
  42
0
  0
SEQEND
  0
POLYLINE
  8
Element
  6
CONTINUOUS
  66
1
  70
0
  40
0.0049
  41
0.0049
  0
VERTEX
  8
Element
  10
-0.0025
  20
4.4341
  42
1
  0
VERTEX
  8
Element
  10
0.0025
  20
4.4341
  42
1
  0
VERTEX
  8
Element
  10
-0.0025
  20
4.4341
  42
1
  0
SEQEND
  0
POLYLINE
  8
Element
  6
CONTINUOUS
  66
1
  70
0
  40
0.0049
  41
0.0049
  0
VERTEX
  8
Element
  10
0.3975
  20
4.4341
  42
1
  0
VERTEX
  8
Element
  10
0.4025
  20
4.4341
  42
1
  0
VERTEX
  8
Element
  10
0.3975
  20
4.4341
  42
1
  0
SEQEND
  0
POLYLINE
  8
Element
  6
CONTINUOUS
  66
1
  70
0
  40
0.0098
  41
0.0098
  0
VERTEX
  8
Element
  10
0.4
  20
4.4341
  42
0
  0
VERTEX
  8
Element
  10
0.4
  20
4.3341
  42
0
  0
SEQEND
  0
POLYLINE
  8
Element
  6
CONTINUOUS
  66
1
  70
0
  40
0.0049
  41
0.0049
  0
VERTEX
  8
Element
  10
0.3975
  20
4.4341
  42
1
  0
VERTEX
  8
Element
  10
0.4025
  20
4.4341
  42
1
  0
VERTEX
  8
Element
  10
0.3975
  20
4.4341
  42
1
  0
SEQEND
  0
POLYLINE
  8
Element
  6
CONTINUOUS
  66
1
  70
0
  40
0.0049
  41
0.0049
  0
VERTEX
  8
Element
  10
0.3975
  20
4.3341
  42
1
  0
VERTEX
  8
Element
  10
0.4025
  20
4.3341
  42
1
  0
VERTEX
  8
Element
  10
0.3975
  20
4.3341
  42
1
  0
SEQEND
  0
POLYLINE
  8
Element
  6
CONTINUOUS
  66
1
  70
0
  40
0.0098
  41
0.0098
  0
VERTEX
  8
Element
  10
0.4
  20
4.3341
  42
0
  0
VERTEX
  8
Element
  10
0.0
  20
4.3341
  42
0
  0
SEQEND
  0
POLYLINE
  8
Element
  6
CONTINUOUS
  66
1
  70
0
  40
0.0049
  41
0.0049
  0
VERTEX
  8
Element
  10
0.3975
  20
4.3341
  42
1
  0
VERTEX
  8
Element
  10
0.4025
  20
4.3341
  42
1
  0
VERTEX
  8
Element
  10
0.3975
  20
4.3341
  42
1
  0
SEQEND
  0
POLYLINE
  8
Element
  6
CONTINUOUS
  66
1
  70
0
  40
0.0049
  41
0.0049
  0
VERTEX
  8
Element
  10
-0.0025
  20
4.3341
  42
1
  0
VERTEX
  8
Element
  10
0.0025
  20
4.3341
  42
1
  0
VERTEX
  8
Element
  10
-0.0025
  20
4.3341
  42
1
  0
SEQEND
  0
POLYLINE
  8
Element
  6
CONTINUOUS
  66
1
  70
0
  40
0.0098
  41
0.0098
  0
VERTEX
  8
Element
  10
0.175
  20
4.0091
  42
0
  0
VERTEX
  8
Element
  10
0.225
  20
3.9591
  42
0
  0
SEQEND
  0
POLYLINE
  8
Element
  6
CONTINUOUS
  66
1
  70
0
  40
0.0049
  41
0.0049
  0
VERTEX
  8
Element
  10
0.1725
  20
4.0091
  42
1
  0
VERTEX
  8
Element
  10
0.1775
  20
4.0091
  42
1
  0
VERTEX
  8
Element
  10
0.1725
  20
4.0091
  42
1
  0
SEQEND
  0
POLYLINE
  8
Element
  6
CONTINUOUS
  66
1
  70
0
  40
0.0049
  41
0.0049
  0
VERTEX
  8
Element
  10
0.2225
  20
3.9591
  42
1
  0
VERTEX
  8
Element
  10
0.2275
  20
3.9591
  42
1
  0
VERTEX
  8
Element
  10
0.2225
  20
3.9591
  42
1
  0
SEQEND
  0
POLYLINE
  8
Element
  6
CONTINUOUS
  66
1
  70
0
  40
0.0098
  41
0.0098
  0
VERTEX
  8
Element
  10
0.175
  20
3.9091
  42
0
  0
VERTEX
  8
Element
  10
0.225
  20
3.9591
  42
0
  0
SEQEND
  0
POLYLINE
  8
Element
  6
CONTINUOUS
  66
1
  70
0
  40
0.0049
  41
0.0049
  0
VERTEX
  8
Element
  10
0.1725
  20
3.9091
  42
1
  0
VERTEX
  8
Element
  10
0.1775
  20
3.9091
  42
1
  0
VERTEX
  8
Element
  10
0.1725
  20
3.9091
  42
1
  0
SEQEND
  0
POLYLINE
  8
Element
  6
CONTINUOUS
  66
1
  70
0
  40
0.0049
  41
0.0049
  0
VERTEX
  8
Element
  10
0.2225
  20
3.9591
  42
1
  0
VERTEX
  8
Element
  10
0.2275
  20
3.9591
  42
1
  0
VERTEX
  8
Element
  10
0.2225
  20
3.9591
  42
1
  0
SEQEND
  0
POLYLINE
  8
Element
  6
CONTINUOUS
  66
1
  70
0
  40
0.0098
  41
0.0098
  0
VERTEX
  8
Element
  10
0.225
  20
3.9591
  42
0
  0
VERTEX
  8
Element
  10
0.4
  20
3.9591
  42
0
  0
SEQEND
  0
POLYLINE
  8
Element
  6
CONTINUOUS
  66
1
  70
0
  40
0.0049
  41
0.0049
  0
VERTEX
  8
Element
  10
0.2225
  20
3.9591
  42
1
  0
VERTEX
  8
Element
  10
0.2275
  20
3.9591
  42
1
  0
VERTEX
  8
Element
  10
0.2225
  20
3.9591
  42
1
  0
SEQEND
  0
POLYLINE
  8
Element
  6
CONTINUOUS
  66
1
  70
0
  40
0.0049
  41
0.0049
  0
VERTEX
  8
Element
  10
0.3975
  20
3.9591
  42
1
  0
VERTEX
  8
Element
  10
0.4025
  20
3.9591
  42
1
  0
VERTEX
  8
Element
  10
0.3975
  20
3.9591
  42
1
  0
SEQEND
  0
POLYLINE
  8
Element
  6
CONTINUOUS
  66
1
  70
0
  40
0.0098
  41
0.0098
  0
VERTEX
  8
Element
  10
0.0
  20
3.9091
  42
0
  0
VERTEX
  8
Element
  10
0.0
  20
4.0091
  42
0
  0
SEQEND
  0
POLYLINE
  8
Element
  6
CONTINUOUS
  66
1
  70
0
  40
0.0049
  41
0.0049
  0
VERTEX
  8
Element
  10
-0.0025
  20
3.9091
  42
1
  0
VERTEX
  8
Element
  10
0.0025
  20
3.9091
  42
1
  0
VERTEX
  8
Element
  10
-0.0025
  20
3.9091
  42
1
  0
SEQEND
  0
POLYLINE
  8
Element
  6
CONTINUOUS
  66
1
  70
0
  40
0.0049
  41
0.0049
  0
VERTEX
  8
Element
  10
-0.0025
  20
4.0091
  42
1
  0
VERTEX
  8
Element
  10
0.0025
  20
4.0091
  42
1
  0
VERTEX
  8
Element
  10
-0.0025
  20
4.0091
  42
1
  0
SEQEND
  0
POLYLINE
  8
Element
  6
CONTINUOUS
  66
1
  70
0
  40
0.0098
  41
0.0098
  0
VERTEX
  8
Element
  10
0.0
  20
4.0091
  42
0
  0
VERTEX
  8
Element
  10
0.4
  20
4.0091
  42
0
  0
SEQEND
  0
POLYLINE
  8
Element
  6
CONTINUOUS
  66
1
  70
0
  40
0.0049
  41
0.0049
  0
VERTEX
  8
Element
  10
-0.0025
  20
4.0091
  42
1
  0
VERTEX
  8
Element
  10
0.0025
  20
4.0091
  42
1
  0
VERTEX
  8
Element
  10
-0.0025
  20
4.0091
  42
1
  0
SEQEND
  0
POLYLINE
  8
Element
  6
CONTINUOUS
  66
1
  70
0
  40
0.0049
  41
0.0049
  0
VERTEX
  8
Element
  10
0.3975
  20
4.0091
  42
1
  0
VERTEX
  8
Element
  10
0.4025
  20
4.0091
  42
1
  0
VERTEX
  8
Element
  10
0.3975
  20
4.0091
  42
1
  0
SEQEND
  0
POLYLINE
  8
Element
  6
CONTINUOUS
  66
1
  70
0
  40
0.0098
  41
0.0098
  0
VERTEX
  8
Element
  10
0.4
  20
4.0091
  42
0
  0
VERTEX
  8
Element
  10
0.4
  20
3.9091
  42
0
  0
SEQEND
  0
POLYLINE
  8
Element
  6
CONTINUOUS
  66
1
  70
0
  40
0.0049
  41
0.0049
  0
VERTEX
  8
Element
  10
0.3975
  20
4.0091
  42
1
  0
VERTEX
  8
Element
  10
0.4025
  20
4.0091
  42
1
  0
VERTEX
  8
Element
  10
0.3975
  20
4.0091
  42
1
  0
SEQEND
  0
POLYLINE
  8
Element
  6
CONTINUOUS
  66
1
  70
0
  40
0.0049
  41
0.0049
  0
VERTEX
  8
Element
  10
0.3975
  20
3.9091
  42
1
  0
VERTEX
  8
Element
  10
0.4025
  20
3.9091
  42
1
  0
VERTEX
  8
Element
  10
0.3975
  20
3.9091
  42
1
  0
SEQEND
  0
POLYLINE
  8
Element
  6
CONTINUOUS
  66
1
  70
0
  40
0.0098
  41
0.0098
  0
VERTEX
  8
Element
  10
0.4
  20
3.9091
  42
0
  0
VERTEX
  8
Element
  10
0.0
  20
3.9091
  42
0
  0
SEQEND
  0
POLYLINE
  8
Element
  6
CONTINUOUS
  66
1
  70
0
  40
0.0049
  41
0.0049
  0
VERTEX
  8
Element
  10
0.3975
  20
3.9091
  42
1
  0
VERTEX
  8
Element
  10
0.4025
  20
3.9091
  42
1
  0
VERTEX
  8
Element
  10
0.3975
  20
3.9091
  42
1
  0
SEQEND
  0
POLYLINE
  8
Element
  6
CONTINUOUS
  66
1
  70
0
  40
0.0049
  41
0.0049
  0
VERTEX
  8
Element
  10
-0.0025
  20
3.9091
  42
1
  0
VERTEX
  8
Element
  10
0.0025
  20
3.9091
  42
1
  0
VERTEX
  8
Element
  10
-0.0025
  20
3.9091
  42
1
  0
SEQEND
  0
POLYLINE
  8
Element
  6
CONTINUOUS
  66
1
  70
0
  40
0.0098
  41
0.0098
  0
VERTEX
  8
Element
  10
0.175
  20
3.5841
  42
0
  0
VERTEX
  8
Element
  10
0.225
  20
3.5341
  42
0
  0
SEQEND
  0
POLYLINE
  8
Element
  6
CONTINUOUS
  66
1
  70
0
  40
0.0049
  41
0.0049
  0
VERTEX
  8
Element
  10
0.1725
  20
3.5841
  42
1
  0
VERTEX
  8
Element
  10
0.1775
  20
3.5841
  42
1
  0
VERTEX
  8
Element
  10
0.1725
  20
3.5841
  42
1
  0
SEQEND
  0
POLYLINE
  8
Element
  6
CONTINUOUS
  66
1
  70
0
  40
0.0049
  41
0.0049
  0
VERTEX
  8
Element
  10
0.2225
  20
3.5341
  42
1
  0
VERTEX
  8
Element
  10
0.2275
  20
3.5341
  42
1
  0
VERTEX
  8
Element
  10
0.2225
  20
3.5341
  42
1
  0
SEQEND
  0
POLYLINE
  8
Element
  6
CONTINUOUS
  66
1
  70
0
  40
0.0098
  41
0.0098
  0
VERTEX
  8
Element
  10
0.175
  20
3.4841
  42
0
  0
VERTEX
  8
Element
  10
0.225
  20
3.5341
  42
0
  0
SEQEND
  0
POLYLINE
  8
Element
  6
CONTINUOUS
  66
1
  70
0
  40
0.0049
  41
0.0049
  0
VERTEX
  8
Element
  10
0.1725
  20
3.4841
  42
1
  0
VERTEX
  8
Element
  10
0.1775
  20
3.4841
  42
1
  0
VERTEX
  8
Element
  10
0.1725
  20
3.4841
  42
1
  0
SEQEND
  0
POLYLINE
  8
Element
  6
CONTINUOUS
  66
1
  70
0
  40
0.0049
  41
0.0049
  0
VERTEX
  8
Element
  10
0.2225
  20
3.5341
  42
1
  0
VERTEX
  8
Element
  10
0.2275
  20
3.5341
  42
1
  0
VERTEX
  8
Element
  10
0.2225
  20
3.5341
  42
1
  0
SEQEND
  0
POLYLINE
  8
Element
  6
CONTINUOUS
  66
1
  70
0
  40
0.0098
  41
0.0098
  0
VERTEX
  8
Element
  10
0.225
  20
3.5341
  42
0
  0
VERTEX
  8
Element
  10
0.4
  20
3.5341
  42
0
  0
SEQEND
  0
POLYLINE
  8
Element
  6
CONTINUOUS
  66
1
  70
0
  40
0.0049
  41
0.0049
  0
VERTEX
  8
Element
  10
0.2225
  20
3.5341
  42
1
  0
VERTEX
  8
Element
  10
0.2275
  20
3.5341
  42
1
  0
VERTEX
  8
Element
  10
0.2225
  20
3.5341
  42
1
  0
SEQEND
  0
POLYLINE
  8
Element
  6
CONTINUOUS
  66
1
  70
0
  40
0.0049
  41
0.0049
  0
VERTEX
  8
Element
  10
0.3975
  20
3.5341
  42
1
  0
VERTEX
  8
Element
  10
0.4025
  20
3.5341
  42
1
  0
VERTEX
  8
Element
  10
0.3975
  20
3.5341
  42
1
  0
SEQEND
  0
POLYLINE
  8
Element
  6
CONTINUOUS
  66
1
  70
0
  40
0.0098
  41
0.0098
  0
VERTEX
  8
Element
  10
0.0
  20
3.4841
  42
0
  0
VERTEX
  8
Element
  10
0.0
  20
3.5841
  42
0
  0
SEQEND
  0
POLYLINE
  8
Element
  6
CONTINUOUS
  66
1
  70
0
  40
0.0049
  41
0.0049
  0
VERTEX
  8
Element
  10
-0.0025
  20
3.4841
  42
1
  0
VERTEX
  8
Element
  10
0.0025
  20
3.4841
  42
1
  0
VERTEX
  8
Element
  10
-0.0025
  20
3.4841
  42
1
  0
SEQEND
  0
POLYLINE
  8
Element
  6
CONTINUOUS
  66
1
  70
0
  40
0.0049
  41
0.0049
  0
VERTEX
  8
Element
  10
-0.0025
  20
3.5841
  42
1
  0
VERTEX
  8
Element
  10
0.0025
  20
3.5841
  42
1
  0
VERTEX
  8
Element
  10
-0.0025
  20
3.5841
  42
1
  0
SEQEND
  0
POLYLINE
  8
Element
  6
CONTINUOUS
  66
1
  70
0
  40
0.0098
  41
0.0098
  0
VERTEX
  8
Element
  10
0.0
  20
3.5841
  42
0
  0
VERTEX
  8
Element
  10
0.4
  20
3.5841
  42
0
  0
SEQEND
  0
POLYLINE
  8
Element
  6
CONTINUOUS
  66
1
  70
0
  40
0.0049
  41
0.0049
  0
VERTEX
  8
Element
  10
-0.0025
  20
3.5841
  42
1
  0
VERTEX
  8
Element
  10
0.0025
  20
3.5841
  42
1
  0
VERTEX
  8
Element
  10
-0.0025
  20
3.5841
  42
1
  0
SEQEND
  0
POLYLINE
  8
Element
  6
CONTINUOUS
  66
1
  70
0
  40
0.0049
  41
0.0049
  0
VERTEX
  8
Element
  10
0.3975
  20
3.5841
  42
1
  0
VERTEX
  8
Element
  10
0.4025
  20
3.5841
  42
1
  0
VERTEX
  8
Element
  10
0.3975
  20
3.5841
  42
1
  0
SEQEND
  0
POLYLINE
  8
Element
  6
CONTINUOUS
  66
1
  70
0
  40
0.0098
  41
0.0098
  0
VERTEX
  8
Element
  10
0.4
  20
3.5841
  42
0
  0
VERTEX
  8
Element
  10
0.4
  20
3.4841
  42
0
  0
SEQEND
  0
POLYLINE
  8
Element
  6
CONTINUOUS
  66
1
  70
0
  40
0.0049
  41
0.0049
  0
VERTEX
  8
Element
  10
0.3975
  20
3.5841
  42
1
  0
VERTEX
  8
Element
  10
0.4025
  20
3.5841
  42
1
  0
VERTEX
  8
Element
  10
0.3975
  20
3.5841
  42
1
  0
SEQEND
  0
POLYLINE
  8
Element
  6
CONTINUOUS
  66
1
  70
0
  40
0.0049
  41
0.0049
  0
VERTEX
  8
Element
  10
0.3975
  20
3.4841
  42
1
  0
VERTEX
  8
Element
  10
0.4025
  20
3.4841
  42
1
  0
VERTEX
  8
Element
  10
0.3975
  20
3.4841
  42
1
  0
SEQEND
  0
POLYLINE
  8
Element
  6
CONTINUOUS
  66
1
  70
0
  40
0.0098
  41
0.0098
  0
VERTEX
  8
Element
  10
0.4
  20
3.4841
  42
0
  0
VERTEX
  8
Element
  10
0.0
  20
3.4841
  42
0
  0
SEQEND
  0
POLYLINE
  8
Element
  6
CONTINUOUS
  66
1
  70
0
  40
0.0049
  41
0.0049
  0
VERTEX
  8
Element
  10
0.3975
  20
3.4841
  42
1
  0
VERTEX
  8
Element
  10
0.4025
  20
3.4841
  42
1
  0
VERTEX
  8
Element
  10
0.3975
  20
3.4841
  42
1
  0
SEQEND
  0
POLYLINE
  8
Element
  6
CONTINUOUS
  66
1
  70
0
  40
0.0049
  41
0.0049
  0
VERTEX
  8
Element
  10
-0.0025
  20
3.4841
  42
1
  0
VERTEX
  8
Element
  10
0.0025
  20
3.4841
  42
1
  0
VERTEX
  8
Element
  10
-0.0025
  20
3.4841
  42
1
  0
SEQEND
  0
POLYLINE
  8
Element
  6
CONTINUOUS
  66
1
  70
0
  40
0.0098
  41
0.0098
  0
VERTEX
  8
Element
  10
0.175
  20
3.1341
  42
0
  0
VERTEX
  8
Element
  10
0.225
  20
3.0841
  42
0
  0
SEQEND
  0
POLYLINE
  8
Element
  6
CONTINUOUS
  66
1
  70
0
  40
0.0049
  41
0.0049
  0
VERTEX
  8
Element
  10
0.1725
  20
3.1341
  42
1
  0
VERTEX
  8
Element
  10
0.1775
  20
3.1341
  42
1
  0
VERTEX
  8
Element
  10
0.1725
  20
3.1341
  42
1
  0
SEQEND
  0
POLYLINE
  8
Element
  6
CONTINUOUS
  66
1
  70
0
  40
0.0049
  41
0.0049
  0
VERTEX
  8
Element
  10
0.2225
  20
3.0841
  42
1
  0
VERTEX
  8
Element
  10
0.2275
  20
3.0841
  42
1
  0
VERTEX
  8
Element
  10
0.2225
  20
3.0841
  42
1
  0
SEQEND
  0
POLYLINE
  8
Element
  6
CONTINUOUS
  66
1
  70
0
  40
0.0098
  41
0.0098
  0
VERTEX
  8
Element
  10
0.175
  20
3.0341
  42
0
  0
VERTEX
  8
Element
  10
0.225
  20
3.0841
  42
0
  0
SEQEND
  0
POLYLINE
  8
Element
  6
CONTINUOUS
  66
1
  70
0
  40
0.0049
  41
0.0049
  0
VERTEX
  8
Element
  10
0.1725
  20
3.0341
  42
1
  0
VERTEX
  8
Element
  10
0.1775
  20
3.0341
  42
1
  0
VERTEX
  8
Element
  10
0.1725
  20
3.0341
  42
1
  0
SEQEND
  0
POLYLINE
  8
Element
  6
CONTINUOUS
  66
1
  70
0
  40
0.0049
  41
0.0049
  0
VERTEX
  8
Element
  10
0.2225
  20
3.0841
  42
1
  0
VERTEX
  8
Element
  10
0.2275
  20
3.0841
  42
1
  0
VERTEX
  8
Element
  10
0.2225
  20
3.0841
  42
1
  0
SEQEND
  0
POLYLINE
  8
Element
  6
CONTINUOUS
  66
1
  70
0
  40
0.0098
  41
0.0098
  0
VERTEX
  8
Element
  10
0.225
  20
3.0841
  42
0
  0
VERTEX
  8
Element
  10
0.4
  20
3.0841
  42
0
  0
SEQEND
  0
POLYLINE
  8
Element
  6
CONTINUOUS
  66
1
  70
0
  40
0.0049
  41
0.0049
  0
VERTEX
  8
Element
  10
0.2225
  20
3.0841
  42
1
  0
VERTEX
  8
Element
  10
0.2275
  20
3.0841
  42
1
  0
VERTEX
  8
Element
  10
0.2225
  20
3.0841
  42
1
  0
SEQEND
  0
POLYLINE
  8
Element
  6
CONTINUOUS
  66
1
  70
0
  40
0.0049
  41
0.0049
  0
VERTEX
  8
Element
  10
0.3975
  20
3.0841
  42
1
  0
VERTEX
  8
Element
  10
0.4025
  20
3.0841
  42
1
  0
VERTEX
  8
Element
  10
0.3975
  20
3.0841
  42
1
  0
SEQEND
  0
POLYLINE
  8
Element
  6
CONTINUOUS
  66
1
  70
0
  40
0.0098
  41
0.0098
  0
VERTEX
  8
Element
  10
0.0
  20
3.0341
  42
0
  0
VERTEX
  8
Element
  10
0.0
  20
3.1341
  42
0
  0
SEQEND
  0
POLYLINE
  8
Element
  6
CONTINUOUS
  66
1
  70
0
  40
0.0049
  41
0.0049
  0
VERTEX
  8
Element
  10
-0.0025
  20
3.0341
  42
1
  0
VERTEX
  8
Element
  10
0.0025
  20
3.0341
  42
1
  0
VERTEX
  8
Element
  10
-0.0025
  20
3.0341
  42
1
  0
SEQEND
  0
POLYLINE
  8
Element
  6
CONTINUOUS
  66
1
  70
0
  40
0.0049
  41
0.0049
  0
VERTEX
  8
Element
  10
-0.0025
  20
3.1341
  42
1
  0
VERTEX
  8
Element
  10
0.0025
  20
3.1341
  42
1
  0
VERTEX
  8
Element
  10
-0.0025
  20
3.1341
  42
1
  0
SEQEND
  0
POLYLINE
  8
Element
  6
CONTINUOUS
  66
1
  70
0
  40
0.0098
  41
0.0098
  0
VERTEX
  8
Element
  10
0.0
  20
3.1341
  42
0
  0
VERTEX
  8
Element
  10
0.4
  20
3.1341
  42
0
  0
SEQEND
  0
POLYLINE
  8
Element
  6
CONTINUOUS
  66
1
  70
0
  40
0.0049
  41
0.0049
  0
VERTEX
  8
Element
  10
-0.0025
  20
3.1341
  42
1
  0
VERTEX
  8
Element
  10
0.0025
  20
3.1341
  42
1
  0
VERTEX
  8
Element
  10
-0.0025
  20
3.1341
  42
1
  0
SEQEND
  0
POLYLINE
  8
Element
  6
CONTINUOUS
  66
1
  70
0
  40
0.0049
  41
0.0049
  0
VERTEX
  8
Element
  10
0.3975
  20
3.1341
  42
1
  0
VERTEX
  8
Element
  10
0.4025
  20
3.1341
  42
1
  0
VERTEX
  8
Element
  10
0.3975
  20
3.1341
  42
1
  0
SEQEND
  0
POLYLINE
  8
Element
  6
CONTINUOUS
  66
1
  70
0
  40
0.0098
  41
0.0098
  0
VERTEX
  8
Element
  10
0.4
  20
3.1341
  42
0
  0
VERTEX
  8
Element
  10
0.4
  20
3.0341
  42
0
  0
SEQEND
  0
POLYLINE
  8
Element
  6
CONTINUOUS
  66
1
  70
0
  40
0.0049
  41
0.0049
  0
VERTEX
  8
Element
  10
0.3975
  20
3.1341
  42
1
  0
VERTEX
  8
Element
  10
0.4025
  20
3.1341
  42
1
  0
VERTEX
  8
Element
  10
0.3975
  20
3.1341
  42
1
  0
SEQEND
  0
POLYLINE
  8
Element
  6
CONTINUOUS
  66
1
  70
0
  40
0.0049
  41
0.0049
  0
VERTEX
  8
Element
  10
0.3975
  20
3.0341
  42
1
  0
VERTEX
  8
Element
  10
0.4025
  20
3.0341
  42
1
  0
VERTEX
  8
Element
  10
0.3975
  20
3.0341
  42
1
  0
SEQEND
  0
POLYLINE
  8
Element
  6
CONTINUOUS
  66
1
  70
0
  40
0.0098
  41
0.0098
  0
VERTEX
  8
Element
  10
0.4
  20
3.0341
  42
0
  0
VERTEX
  8
Element
  10
0.0
  20
3.0341
  42
0
  0
SEQEND
  0
POLYLINE
  8
Element
  6
CONTINUOUS
  66
1
  70
0
  40
0.0049
  41
0.0049
  0
VERTEX
  8
Element
  10
0.3975
  20
3.0341
  42
1
  0
VERTEX
  8
Element
  10
0.4025
  20
3.0341
  42
1
  0
VERTEX
  8
Element
  10
0.3975
  20
3.0341
  42
1
  0
SEQEND
  0
POLYLINE
  8
Element
  6
CONTINUOUS
  66
1
  70
0
  40
0.0049
  41
0.0049
  0
VERTEX
  8
Element
  10
-0.0025
  20
3.0341
  42
1
  0
VERTEX
  8
Element
  10
0.0025
  20
3.0341
  42
1
  0
VERTEX
  8
Element
  10
-0.0025
  20
3.0341
  42
1
  0
SEQEND
  0
POLYLINE
  8
Element
  6
CONTINUOUS
  66
1
  70
0
  40
0.0098
  41
0.0098
  0
VERTEX
  8
Element
  10
0.2
  20
4.8091
  42
0
  0
VERTEX
  8
Element
  10
0.25
  20
4.7591
  42
0
  0
SEQEND
  0
POLYLINE
  8
Element
  6
CONTINUOUS
  66
1
  70
0
  40
0.0049
  41
0.0049
  0
VERTEX
  8
Element
  10
0.1975
  20
4.8091
  42
1
  0
VERTEX
  8
Element
  10
0.2025
  20
4.8091
  42
1
  0
VERTEX
  8
Element
  10
0.1975
  20
4.8091
  42
1
  0
SEQEND
  0
POLYLINE
  8
Element
  6
CONTINUOUS
  66
1
  70
0
  40
0.0049
  41
0.0049
  0
VERTEX
  8
Element
  10
0.2475
  20
4.7591
  42
1
  0
VERTEX
  8
Element
  10
0.2525
  20
4.7591
  42
1
  0
VERTEX
  8
Element
  10
0.2475
  20
4.7591
  42
1
  0
SEQEND
  0
POLYLINE
  8
Element
  6
CONTINUOUS
  66
1
  70
0
  40
0.0098
  41
0.0098
  0
VERTEX
  8
Element
  10
0.2
  20
4.7091
  42
0
  0
VERTEX
  8
Element
  10
0.25
  20
4.7591
  42
0
  0
SEQEND
  0
POLYLINE
  8
Element
  6
CONTINUOUS
  66
1
  70
0
  40
0.0049
  41
0.0049
  0
VERTEX
  8
Element
  10
0.1975
  20
4.7091
  42
1
  0
VERTEX
  8
Element
  10
0.2025
  20
4.7091
  42
1
  0
VERTEX
  8
Element
  10
0.1975
  20
4.7091
  42
1
  0
SEQEND
  0
POLYLINE
  8
Element
  6
CONTINUOUS
  66
1
  70
0
  40
0.0049
  41
0.0049
  0
VERTEX
  8
Element
  10
0.2475
  20
4.7591
  42
1
  0
VERTEX
  8
Element
  10
0.2525
  20
4.7591
  42
1
  0
VERTEX
  8
Element
  10
0.2475
  20
4.7591
  42
1
  0
SEQEND
  0
POLYLINE
  8
Element
  6
CONTINUOUS
  66
1
  70
0
  40
0.0098
  41
0.0098
  0
VERTEX
  8
Element
  10
0.25
  20
4.7591
  42
0
  0
VERTEX
  8
Element
  10
0.425
  20
4.7591
  42
0
  0
SEQEND
  0
POLYLINE
  8
Element
  6
CONTINUOUS
  66
1
  70
0
  40
0.0049
  41
0.0049
  0
VERTEX
  8
Element
  10
0.2475
  20
4.7591
  42
1
  0
VERTEX
  8
Element
  10
0.2525
  20
4.7591
  42
1
  0
VERTEX
  8
Element
  10
0.2475
  20
4.7591
  42
1
  0
SEQEND
  0
POLYLINE
  8
Element
  6
CONTINUOUS
  66
1
  70
0
  40
0.0049
  41
0.0049
  0
VERTEX
  8
Element
  10
0.4225
  20
4.7591
  42
1
  0
VERTEX
  8
Element
  10
0.4275
  20
4.7591
  42
1
  0
VERTEX
  8
Element
  10
0.4225
  20
4.7591
  42
1
  0
SEQEND
  0
POLYLINE
  8
Element
  6
CONTINUOUS
  66
1
  70
0
  40
0.0098
  41
0.0098
  0
VERTEX
  8
Element
  10
0.025
  20
4.7091
  42
0
  0
VERTEX
  8
Element
  10
0.025
  20
4.8091
  42
0
  0
SEQEND
  0
POLYLINE
  8
Element
  6
CONTINUOUS
  66
1
  70
0
  40
0.0049
  41
0.0049
  0
VERTEX
  8
Element
  10
0.0225
  20
4.7091
  42
1
  0
VERTEX
  8
Element
  10
0.0275
  20
4.7091
  42
1
  0
VERTEX
  8
Element
  10
0.0225
  20
4.7091
  42
1
  0
SEQEND
  0
POLYLINE
  8
Element
  6
CONTINUOUS
  66
1
  70
0
  40
0.0049
  41
0.0049
  0
VERTEX
  8
Element
  10
0.0225
  20
4.8091
  42
1
  0
VERTEX
  8
Element
  10
0.0275
  20
4.8091
  42
1
  0
VERTEX
  8
Element
  10
0.0225
  20
4.8091
  42
1
  0
SEQEND
  0
POLYLINE
  8
Element
  6
CONTINUOUS
  66
1
  70
0
  40
0.0098
  41
0.0098
  0
VERTEX
  8
Element
  10
0.025
  20
4.8091
  42
0
  0
VERTEX
  8
Element
  10
0.425
  20
4.8091
  42
0
  0
SEQEND
  0
POLYLINE
  8
Element
  6
CONTINUOUS
  66
1
  70
0
  40
0.0049
  41
0.0049
  0
VERTEX
  8
Element
  10
0.0225
  20
4.8091
  42
1
  0
VERTEX
  8
Element
  10
0.0275
  20
4.8091
  42
1
  0
VERTEX
  8
Element
  10
0.0225
  20
4.8091
  42
1
  0
SEQEND
  0
POLYLINE
  8
Element
  6
CONTINUOUS
  66
1
  70
0
  40
0.0049
  41
0.0049
  0
VERTEX
  8
Element
  10
0.4225
  20
4.8091
  42
1
  0
VERTEX
  8
Element
  10
0.4275
  20
4.8091
  42
1
  0
VERTEX
  8
Element
  10
0.4225
  20
4.8091
  42
1
  0
SEQEND
  0
POLYLINE
  8
Element
  6
CONTINUOUS
  66
1
  70
0
  40
0.0098
  41
0.0098
  0
VERTEX
  8
Element
  10
0.425
  20
4.8091
  42
0
  0
VERTEX
  8
Element
  10
0.425
  20
4.7091
  42
0
  0
SEQEND
  0
POLYLINE
  8
Element
  6
CONTINUOUS
  66
1
  70
0
  40
0.0049
  41
0.0049
  0
VERTEX
  8
Element
  10
0.4225
  20
4.8091
  42
1
  0
VERTEX
  8
Element
  10
0.4275
  20
4.8091
  42
1
  0
VERTEX
  8
Element
  10
0.4225
  20
4.8091
  42
1
  0
SEQEND
  0
POLYLINE
  8
Element
  6
CONTINUOUS
  66
1
  70
0
  40
0.0049
  41
0.0049
  0
VERTEX
  8
Element
  10
0.4225
  20
4.7091
  42
1
  0
VERTEX
  8
Element
  10
0.4275
  20
4.7091
  42
1
  0
VERTEX
  8
Element
  10
0.4225
  20
4.7091
  42
1
  0
SEQEND
  0
POLYLINE
  8
Element
  6
CONTINUOUS
  66
1
  70
0
  40
0.0098
  41
0.0098
  0
VERTEX
  8
Element
  10
0.425
  20
4.7091
  42
0
  0
VERTEX
  8
Element
  10
0.025
  20
4.7091
  42
0
  0
SEQEND
  0
POLYLINE
  8
Element
  6
CONTINUOUS
  66
1
  70
0
  40
0.0049
  41
0.0049
  0
VERTEX
  8
Element
  10
0.4225
  20
4.7091
  42
1
  0
VERTEX
  8
Element
  10
0.4275
  20
4.7091
  42
1
  0
VERTEX
  8
Element
  10
0.4225
  20
4.7091
  42
1
  0
SEQEND
  0
POLYLINE
  8
Element
  6
CONTINUOUS
  66
1
  70
0
  40
0.0049
  41
0.0049
  0
VERTEX
  8
Element
  10
0.0225
  20
4.7091
  42
1
  0
VERTEX
  8
Element
  10
0.0275
  20
4.7091
  42
1
  0
VERTEX
  8
Element
  10
0.0225
  20
4.7091
  42
1
  0
SEQEND
  0
POLYLINE
  8
Element
  6
CONTINUOUS
  66
1
  70
0
  40
0.0098
  41
0.0098
  0
VERTEX
  8
Element
  10
0.175
  20
2.6841
  42
0
  0
VERTEX
  8
Element
  10
0.225
  20
2.6341
  42
0
  0
SEQEND
  0
POLYLINE
  8
Element
  6
CONTINUOUS
  66
1
  70
0
  40
0.0049
  41
0.0049
  0
VERTEX
  8
Element
  10
0.1725
  20
2.6841
  42
1
  0
VERTEX
  8
Element
  10
0.1775
  20
2.6841
  42
1
  0
VERTEX
  8
Element
  10
0.1725
  20
2.6841
  42
1
  0
SEQEND
  0
POLYLINE
  8
Element
  6
CONTINUOUS
  66
1
  70
0
  40
0.0049
  41
0.0049
  0
VERTEX
  8
Element
  10
0.2225
  20
2.6341
  42
1
  0
VERTEX
  8
Element
  10
0.2275
  20
2.6341
  42
1
  0
VERTEX
  8
Element
  10
0.2225
  20
2.6341
  42
1
  0
SEQEND
  0
POLYLINE
  8
Element
  6
CONTINUOUS
  66
1
  70
0
  40
0.0098
  41
0.0098
  0
VERTEX
  8
Element
  10
0.175
  20
2.5841
  42
0
  0
VERTEX
  8
Element
  10
0.225
  20
2.6341
  42
0
  0
SEQEND
  0
POLYLINE
  8
Element
  6
CONTINUOUS
  66
1
  70
0
  40
0.0049
  41
0.0049
  0
VERTEX
  8
Element
  10
0.1725
  20
2.5841
  42
1
  0
VERTEX
  8
Element
  10
0.1775
  20
2.5841
  42
1
  0
VERTEX
  8
Element
  10
0.1725
  20
2.5841
  42
1
  0
SEQEND
  0
POLYLINE
  8
Element
  6
CONTINUOUS
  66
1
  70
0
  40
0.0049
  41
0.0049
  0
VERTEX
  8
Element
  10
0.2225
  20
2.6341
  42
1
  0
VERTEX
  8
Element
  10
0.2275
  20
2.6341
  42
1
  0
VERTEX
  8
Element
  10
0.2225
  20
2.6341
  42
1
  0
SEQEND
  0
POLYLINE
  8
Element
  6
CONTINUOUS
  66
1
  70
0
  40
0.0098
  41
0.0098
  0
VERTEX
  8
Element
  10
0.225
  20
2.6341
  42
0
  0
VERTEX
  8
Element
  10
0.4
  20
2.6341
  42
0
  0
SEQEND
  0
POLYLINE
  8
Element
  6
CONTINUOUS
  66
1
  70
0
  40
0.0049
  41
0.0049
  0
VERTEX
  8
Element
  10
0.2225
  20
2.6341
  42
1
  0
VERTEX
  8
Element
  10
0.2275
  20
2.6341
  42
1
  0
VERTEX
  8
Element
  10
0.2225
  20
2.6341
  42
1
  0
SEQEND
  0
POLYLINE
  8
Element
  6
CONTINUOUS
  66
1
  70
0
  40
0.0049
  41
0.0049
  0
VERTEX
  8
Element
  10
0.3975
  20
2.6341
  42
1
  0
VERTEX
  8
Element
  10
0.4025
  20
2.6341
  42
1
  0
VERTEX
  8
Element
  10
0.3975
  20
2.6341
  42
1
  0
SEQEND
  0
POLYLINE
  8
Element
  6
CONTINUOUS
  66
1
  70
0
  40
0.0098
  41
0.0098
  0
VERTEX
  8
Element
  10
0.0
  20
2.5841
  42
0
  0
VERTEX
  8
Element
  10
0.0
  20
2.6841
  42
0
  0
SEQEND
  0
POLYLINE
  8
Element
  6
CONTINUOUS
  66
1
  70
0
  40
0.0049
  41
0.0049
  0
VERTEX
  8
Element
  10
-0.0025
  20
2.5841
  42
1
  0
VERTEX
  8
Element
  10
0.0025
  20
2.5841
  42
1
  0
VERTEX
  8
Element
  10
-0.0025
  20
2.5841
  42
1
  0
SEQEND
  0
POLYLINE
  8
Element
  6
CONTINUOUS
  66
1
  70
0
  40
0.0049
  41
0.0049
  0
VERTEX
  8
Element
  10
-0.0025
  20
2.6841
  42
1
  0
VERTEX
  8
Element
  10
0.0025
  20
2.6841
  42
1
  0
VERTEX
  8
Element
  10
-0.0025
  20
2.6841
  42
1
  0
SEQEND
  0
POLYLINE
  8
Element
  6
CONTINUOUS
  66
1
  70
0
  40
0.0098
  41
0.0098
  0
VERTEX
  8
Element
  10
0.0
  20
2.6841
  42
0
  0
VERTEX
  8
Element
  10
0.4
  20
2.6841
  42
0
  0
SEQEND
  0
POLYLINE
  8
Element
  6
CONTINUOUS
  66
1
  70
0
  40
0.0049
  41
0.0049
  0
VERTEX
  8
Element
  10
-0.0025
  20
2.6841
  42
1
  0
VERTEX
  8
Element
  10
0.0025
  20
2.6841
  42
1
  0
VERTEX
  8
Element
  10
-0.0025
  20
2.6841
  42
1
  0
SEQEND
  0
POLYLINE
  8
Element
  6
CONTINUOUS
  66
1
  70
0
  40
0.0049
  41
0.0049
  0
VERTEX
  8
Element
  10
0.3975
  20
2.6841
  42
1
  0
VERTEX
  8
Element
  10
0.4025
  20
2.6841
  42
1
  0
VERTEX
  8
Element
  10
0.3975
  20
2.6841
  42
1
  0
SEQEND
  0
POLYLINE
  8
Element
  6
CONTINUOUS
  66
1
  70
0
  40
0.0098
  41
0.0098
  0
VERTEX
  8
Element
  10
0.4
  20
2.6841
  42
0
  0
VERTEX
  8
Element
  10
0.4
  20
2.5841
  42
0
  0
SEQEND
  0
POLYLINE
  8
Element
  6
CONTINUOUS
  66
1
  70
0
  40
0.0049
  41
0.0049
  0
VERTEX
  8
Element
  10
0.3975
  20
2.6841
  42
1
  0
VERTEX
  8
Element
  10
0.4025
  20
2.6841
  42
1
  0
VERTEX
  8
Element
  10
0.3975
  20
2.6841
  42
1
  0
SEQEND
  0
POLYLINE
  8
Element
  6
CONTINUOUS
  66
1
  70
0
  40
0.0049
  41
0.0049
  0
VERTEX
  8
Element
  10
0.3975
  20
2.5841
  42
1
  0
VERTEX
  8
Element
  10
0.4025
  20
2.5841
  42
1
  0
VERTEX
  8
Element
  10
0.3975
  20
2.5841
  42
1
  0
SEQEND
  0
POLYLINE
  8
Element
  6
CONTINUOUS
  66
1
  70
0
  40
0.0098
  41
0.0098
  0
VERTEX
  8
Element
  10
0.4
  20
2.5841
  42
0
  0
VERTEX
  8
Element
  10
0.0
  20
2.5841
  42
0
  0
SEQEND
  0
POLYLINE
  8
Element
  6
CONTINUOUS
  66
1
  70
0
  40
0.0049
  41
0.0049
  0
VERTEX
  8
Element
  10
0.3975
  20
2.5841
  42
1
  0
VERTEX
  8
Element
  10
0.4025
  20
2.5841
  42
1
  0
VERTEX
  8
Element
  10
0.3975
  20
2.5841
  42
1
  0
SEQEND
  0
POLYLINE
  8
Element
  6
CONTINUOUS
  66
1
  70
0
  40
0.0049
  41
0.0049
  0
VERTEX
  8
Element
  10
-0.0025
  20
2.5841
  42
1
  0
VERTEX
  8
Element
  10
0.0025
  20
2.5841
  42
1
  0
VERTEX
  8
Element
  10
-0.0025
  20
2.5841
  42
1
  0
SEQEND
  0
POLYLINE
  8
Element
  6
CONTINUOUS
  66
1
  70
0
  40
0.0098
  41
0.0098
  0
VERTEX
  8
Element
  10
0.175
  20
2.2591
  42
0
  0
VERTEX
  8
Element
  10
0.225
  20
2.2091
  42
0
  0
SEQEND
  0
POLYLINE
  8
Element
  6
CONTINUOUS
  66
1
  70
0
  40
0.0049
  41
0.0049
  0
VERTEX
  8
Element
  10
0.1725
  20
2.2591
  42
1
  0
VERTEX
  8
Element
  10
0.1775
  20
2.2591
  42
1
  0
VERTEX
  8
Element
  10
0.1725
  20
2.2591
  42
1
  0
SEQEND
  0
POLYLINE
  8
Element
  6
CONTINUOUS
  66
1
  70
0
  40
0.0049
  41
0.0049
  0
VERTEX
  8
Element
  10
0.2225
  20
2.2091
  42
1
  0
VERTEX
  8
Element
  10
0.2275
  20
2.2091
  42
1
  0
VERTEX
  8
Element
  10
0.2225
  20
2.2091
  42
1
  0
SEQEND
  0
POLYLINE
  8
Element
  6
CONTINUOUS
  66
1
  70
0
  40
0.0098
  41
0.0098
  0
VERTEX
  8
Element
  10
0.175
  20
2.1591
  42
0
  0
VERTEX
  8
Element
  10
0.225
  20
2.2091
  42
0
  0
SEQEND
  0
POLYLINE
  8
Element
  6
CONTINUOUS
  66
1
  70
0
  40
0.0049
  41
0.0049
  0
VERTEX
  8
Element
  10
0.1725
  20
2.1591
  42
1
  0
VERTEX
  8
Element
  10
0.1775
  20
2.1591
  42
1
  0
VERTEX
  8
Element
  10
0.1725
  20
2.1591
  42
1
  0
SEQEND
  0
POLYLINE
  8
Element
  6
CONTINUOUS
  66
1
  70
0
  40
0.0049
  41
0.0049
  0
VERTEX
  8
Element
  10
0.2225
  20
2.2091
  42
1
  0
VERTEX
  8
Element
  10
0.2275
  20
2.2091
  42
1
  0
VERTEX
  8
Element
  10
0.2225
  20
2.2091
  42
1
  0
SEQEND
  0
POLYLINE
  8
Element
  6
CONTINUOUS
  66
1
  70
0
  40
0.0098
  41
0.0098
  0
VERTEX
  8
Element
  10
0.225
  20
2.2091
  42
0
  0
VERTEX
  8
Element
  10
0.4
  20
2.2091
  42
0
  0
SEQEND
  0
POLYLINE
  8
Element
  6
CONTINUOUS
  66
1
  70
0
  40
0.0049
  41
0.0049
  0
VERTEX
  8
Element
  10
0.2225
  20
2.2091
  42
1
  0
VERTEX
  8
Element
  10
0.2275
  20
2.2091
  42
1
  0
VERTEX
  8
Element
  10
0.2225
  20
2.2091
  42
1
  0
SEQEND
  0
POLYLINE
  8
Element
  6
CONTINUOUS
  66
1
  70
0
  40
0.0049
  41
0.0049
  0
VERTEX
  8
Element
  10
0.3975
  20
2.2091
  42
1
  0
VERTEX
  8
Element
  10
0.4025
  20
2.2091
  42
1
  0
VERTEX
  8
Element
  10
0.3975
  20
2.2091
  42
1
  0
SEQEND
  0
POLYLINE
  8
Element
  6
CONTINUOUS
  66
1
  70
0
  40
0.0098
  41
0.0098
  0
VERTEX
  8
Element
  10
0.0
  20
2.1591
  42
0
  0
VERTEX
  8
Element
  10
0.0
  20
2.2591
  42
0
  0
SEQEND
  0
POLYLINE
  8
Element
  6
CONTINUOUS
  66
1
  70
0
  40
0.0049
  41
0.0049
  0
VERTEX
  8
Element
  10
-0.0025
  20
2.1591
  42
1
  0
VERTEX
  8
Element
  10
0.0025
  20
2.1591
  42
1
  0
VERTEX
  8
Element
  10
-0.0025
  20
2.1591
  42
1
  0
SEQEND
  0
POLYLINE
  8
Element
  6
CONTINUOUS
  66
1
  70
0
  40
0.0049
  41
0.0049
  0
VERTEX
  8
Element
  10
-0.0025
  20
2.2591
  42
1
  0
VERTEX
  8
Element
  10
0.0025
  20
2.2591
  42
1
  0
VERTEX
  8
Element
  10
-0.0025
  20
2.2591
  42
1
  0
SEQEND
  0
POLYLINE
  8
Element
  6
CONTINUOUS
  66
1
  70
0
  40
0.0098
  41
0.0098
  0
VERTEX
  8
Element
  10
0.0
  20
2.2591
  42
0
  0
VERTEX
  8
Element
  10
0.4
  20
2.2591
  42
0
  0
SEQEND
  0
POLYLINE
  8
Element
  6
CONTINUOUS
  66
1
  70
0
  40
0.0049
  41
0.0049
  0
VERTEX
  8
Element
  10
-0.0025
  20
2.2591
  42
1
  0
VERTEX
  8
Element
  10
0.0025
  20
2.2591
  42
1
  0
VERTEX
  8
Element
  10
-0.0025
  20
2.2591
  42
1
  0
SEQEND
  0
POLYLINE
  8
Element
  6
CONTINUOUS
  66
1
  70
0
  40
0.0049
  41
0.0049
  0
VERTEX
  8
Element
  10
0.3975
  20
2.2591
  42
1
  0
VERTEX
  8
Element
  10
0.4025
  20
2.2591
  42
1
  0
VERTEX
  8
Element
  10
0.3975
  20
2.2591
  42
1
  0
SEQEND
  0
POLYLINE
  8
Element
  6
CONTINUOUS
  66
1
  70
0
  40
0.0098
  41
0.0098
  0
VERTEX
  8
Element
  10
0.4
  20
2.2591
  42
0
  0
VERTEX
  8
Element
  10
0.4
  20
2.1591
  42
0
  0
SEQEND
  0
POLYLINE
  8
Element
  6
CONTINUOUS
  66
1
  70
0
  40
0.0049
  41
0.0049
  0
VERTEX
  8
Element
  10
0.3975
  20
2.2591
  42
1
  0
VERTEX
  8
Element
  10
0.4025
  20
2.2591
  42
1
  0
VERTEX
  8
Element
  10
0.3975
  20
2.2591
  42
1
  0
SEQEND
  0
POLYLINE
  8
Element
  6
CONTINUOUS
  66
1
  70
0
  40
0.0049
  41
0.0049
  0
VERTEX
  8
Element
  10
0.3975
  20
2.1591
  42
1
  0
VERTEX
  8
Element
  10
0.4025
  20
2.1591
  42
1
  0
VERTEX
  8
Element
  10
0.3975
  20
2.1591
  42
1
  0
SEQEND
  0
POLYLINE
  8
Element
  6
CONTINUOUS
  66
1
  70
0
  40
0.0098
  41
0.0098
  0
VERTEX
  8
Element
  10
0.4
  20
2.1591
  42
0
  0
VERTEX
  8
Element
  10
0.0
  20
2.1591
  42
0
  0
SEQEND
  0
POLYLINE
  8
Element
  6
CONTINUOUS
  66
1
  70
0
  40
0.0049
  41
0.0049
  0
VERTEX
  8
Element
  10
0.3975
  20
2.1591
  42
1
  0
VERTEX
  8
Element
  10
0.4025
  20
2.1591
  42
1
  0
VERTEX
  8
Element
  10
0.3975
  20
2.1591
  42
1
  0
SEQEND
  0
POLYLINE
  8
Element
  6
CONTINUOUS
  66
1
  70
0
  40
0.0049
  41
0.0049
  0
VERTEX
  8
Element
  10
-0.0025
  20
2.1591
  42
1
  0
VERTEX
  8
Element
  10
0.0025
  20
2.1591
  42
1
  0
VERTEX
  8
Element
  10
-0.0025
  20
2.1591
  42
1
  0
SEQEND
  0
POLYLINE
  8
Element
  6
CONTINUOUS
  66
1
  70
0
  40
0.0098
  41
0.0098
  0
VERTEX
  8
Element
  10
0.175
  20
1.8341
  42
0
  0
VERTEX
  8
Element
  10
0.225
  20
1.7841
  42
0
  0
SEQEND
  0
POLYLINE
  8
Element
  6
CONTINUOUS
  66
1
  70
0
  40
0.0049
  41
0.0049
  0
VERTEX
  8
Element
  10
0.1725
  20
1.8341
  42
1
  0
VERTEX
  8
Element
  10
0.1775
  20
1.8341
  42
1
  0
VERTEX
  8
Element
  10
0.1725
  20
1.8341
  42
1
  0
SEQEND
  0
POLYLINE
  8
Element
  6
CONTINUOUS
  66
1
  70
0
  40
0.0049
  41
0.0049
  0
VERTEX
  8
Element
  10
0.2225
  20
1.7841
  42
1
  0
VERTEX
  8
Element
  10
0.2275
  20
1.7841
  42
1
  0
VERTEX
  8
Element
  10
0.2225
  20
1.7841
  42
1
  0
SEQEND
  0
POLYLINE
  8
Element
  6
CONTINUOUS
  66
1
  70
0
  40
0.0098
  41
0.0098
  0
VERTEX
  8
Element
  10
0.175
  20
1.7341
  42
0
  0
VERTEX
  8
Element
  10
0.225
  20
1.7841
  42
0
  0
SEQEND
  0
POLYLINE
  8
Element
  6
CONTINUOUS
  66
1
  70
0
  40
0.0049
  41
0.0049
  0
VERTEX
  8
Element
  10
0.1725
  20
1.7341
  42
1
  0
VERTEX
  8
Element
  10
0.1775
  20
1.7341
  42
1
  0
VERTEX
  8
Element
  10
0.1725
  20
1.7341
  42
1
  0
SEQEND
  0
POLYLINE
  8
Element
  6
CONTINUOUS
  66
1
  70
0
  40
0.0049
  41
0.0049
  0
VERTEX
  8
Element
  10
0.2225
  20
1.7841
  42
1
  0
VERTEX
  8
Element
  10
0.2275
  20
1.7841
  42
1
  0
VERTEX
  8
Element
  10
0.2225
  20
1.7841
  42
1
  0
SEQEND
  0
POLYLINE
  8
Element
  6
CONTINUOUS
  66
1
  70
0
  40
0.0098
  41
0.0098
  0
VERTEX
  8
Element
  10
0.225
  20
1.7841
  42
0
  0
VERTEX
  8
Element
  10
0.4
  20
1.7841
  42
0
  0
SEQEND
  0
POLYLINE
  8
Element
  6
CONTINUOUS
  66
1
  70
0
  40
0.0049
  41
0.0049
  0
VERTEX
  8
Element
  10
0.2225
  20
1.7841
  42
1
  0
VERTEX
  8
Element
  10
0.2275
  20
1.7841
  42
1
  0
VERTEX
  8
Element
  10
0.2225
  20
1.7841
  42
1
  0
SEQEND
  0
POLYLINE
  8
Element
  6
CONTINUOUS
  66
1
  70
0
  40
0.0049
  41
0.0049
  0
VERTEX
  8
Element
  10
0.3975
  20
1.7841
  42
1
  0
VERTEX
  8
Element
  10
0.4025
  20
1.7841
  42
1
  0
VERTEX
  8
Element
  10
0.3975
  20
1.7841
  42
1
  0
SEQEND
  0
POLYLINE
  8
Element
  6
CONTINUOUS
  66
1
  70
0
  40
0.0098
  41
0.0098
  0
VERTEX
  8
Element
  10
0.0
  20
1.7341
  42
0
  0
VERTEX
  8
Element
  10
0.0
  20
1.8341
  42
0
  0
SEQEND
  0
POLYLINE
  8
Element
  6
CONTINUOUS
  66
1
  70
0
  40
0.0049
  41
0.0049
  0
VERTEX
  8
Element
  10
-0.0025
  20
1.7341
  42
1
  0
VERTEX
  8
Element
  10
0.0025
  20
1.7341
  42
1
  0
VERTEX
  8
Element
  10
-0.0025
  20
1.7341
  42
1
  0
SEQEND
  0
POLYLINE
  8
Element
  6
CONTINUOUS
  66
1
  70
0
  40
0.0049
  41
0.0049
  0
VERTEX
  8
Element
  10
-0.0025
  20
1.8341
  42
1
  0
VERTEX
  8
Element
  10
0.0025
  20
1.8341
  42
1
  0
VERTEX
  8
Element
  10
-0.0025
  20
1.8341
  42
1
  0
SEQEND
  0
POLYLINE
  8
Element
  6
CONTINUOUS
  66
1
  70
0
  40
0.0098
  41
0.0098
  0
VERTEX
  8
Element
  10
0.0
  20
1.8341
  42
0
  0
VERTEX
  8
Element
  10
0.4
  20
1.8341
  42
0
  0
SEQEND
  0
POLYLINE
  8
Element
  6
CONTINUOUS
  66
1
  70
0
  40
0.0049
  41
0.0049
  0
VERTEX
  8
Element
  10
-0.0025
  20
1.8341
  42
1
  0
VERTEX
  8
Element
  10
0.0025
  20
1.8341
  42
1
  0
VERTEX
  8
Element
  10
-0.0025
  20
1.8341
  42
1
  0
SEQEND
  0
POLYLINE
  8
Element
  6
CONTINUOUS
  66
1
  70
0
  40
0.0049
  41
0.0049
  0
VERTEX
  8
Element
  10
0.3975
  20
1.8341
  42
1
  0
VERTEX
  8
Element
  10
0.4025
  20
1.8341
  42
1
  0
VERTEX
  8
Element
  10
0.3975
  20
1.8341
  42
1
  0
SEQEND
  0
POLYLINE
  8
Element
  6
CONTINUOUS
  66
1
  70
0
  40
0.0098
  41
0.0098
  0
VERTEX
  8
Element
  10
0.4
  20
1.8341
  42
0
  0
VERTEX
  8
Element
  10
0.4
  20
1.7341
  42
0
  0
SEQEND
  0
POLYLINE
  8
Element
  6
CONTINUOUS
  66
1
  70
0
  40
0.0049
  41
0.0049
  0
VERTEX
  8
Element
  10
0.3975
  20
1.8341
  42
1
  0
VERTEX
  8
Element
  10
0.4025
  20
1.8341
  42
1
  0
VERTEX
  8
Element
  10
0.3975
  20
1.8341
  42
1
  0
SEQEND
  0
POLYLINE
  8
Element
  6
CONTINUOUS
  66
1
  70
0
  40
0.0049
  41
0.0049
  0
VERTEX
  8
Element
  10
0.3975
  20
1.7341
  42
1
  0
VERTEX
  8
Element
  10
0.4025
  20
1.7341
  42
1
  0
VERTEX
  8
Element
  10
0.3975
  20
1.7341
  42
1
  0
SEQEND
  0
POLYLINE
  8
Element
  6
CONTINUOUS
  66
1
  70
0
  40
0.0098
  41
0.0098
  0
VERTEX
  8
Element
  10
0.4
  20
1.7341
  42
0
  0
VERTEX
  8
Element
  10
0.0
  20
1.7341
  42
0
  0
SEQEND
  0
POLYLINE
  8
Element
  6
CONTINUOUS
  66
1
  70
0
  40
0.0049
  41
0.0049
  0
VERTEX
  8
Element
  10
0.3975
  20
1.7341
  42
1
  0
VERTEX
  8
Element
  10
0.4025
  20
1.7341
  42
1
  0
VERTEX
  8
Element
  10
0.3975
  20
1.7341
  42
1
  0
SEQEND
  0
POLYLINE
  8
Element
  6
CONTINUOUS
  66
1
  70
0
  40
0.0049
  41
0.0049
  0
VERTEX
  8
Element
  10
-0.0025
  20
1.7341
  42
1
  0
VERTEX
  8
Element
  10
0.0025
  20
1.7341
  42
1
  0
VERTEX
  8
Element
  10
-0.0025
  20
1.7341
  42
1
  0
SEQEND
  0
POLYLINE
  8
Element
  6
CONTINUOUS
  66
1
  70
0
  40
0.0098
  41
0.0098
  0
VERTEX
  8
Element
  10
0.175
  20
1.4091
  42
0
  0
VERTEX
  8
Element
  10
0.225
  20
1.3591
  42
0
  0
SEQEND
  0
POLYLINE
  8
Element
  6
CONTINUOUS
  66
1
  70
0
  40
0.0049
  41
0.0049
  0
VERTEX
  8
Element
  10
0.1725
  20
1.4091
  42
1
  0
VERTEX
  8
Element
  10
0.1775
  20
1.4091
  42
1
  0
VERTEX
  8
Element
  10
0.1725
  20
1.4091
  42
1
  0
SEQEND
  0
POLYLINE
  8
Element
  6
CONTINUOUS
  66
1
  70
0
  40
0.0049
  41
0.0049
  0
VERTEX
  8
Element
  10
0.2225
  20
1.3591
  42
1
  0
VERTEX
  8
Element
  10
0.2275
  20
1.3591
  42
1
  0
VERTEX
  8
Element
  10
0.2225
  20
1.3591
  42
1
  0
SEQEND
  0
POLYLINE
  8
Element
  6
CONTINUOUS
  66
1
  70
0
  40
0.0098
  41
0.0098
  0
VERTEX
  8
Element
  10
0.175
  20
1.3091
  42
0
  0
VERTEX
  8
Element
  10
0.225
  20
1.3591
  42
0
  0
SEQEND
  0
POLYLINE
  8
Element
  6
CONTINUOUS
  66
1
  70
0
  40
0.0049
  41
0.0049
  0
VERTEX
  8
Element
  10
0.1725
  20
1.3091
  42
1
  0
VERTEX
  8
Element
  10
0.1775
  20
1.3091
  42
1
  0
VERTEX
  8
Element
  10
0.1725
  20
1.3091
  42
1
  0
SEQEND
  0
POLYLINE
  8
Element
  6
CONTINUOUS
  66
1
  70
0
  40
0.0049
  41
0.0049
  0
VERTEX
  8
Element
  10
0.2225
  20
1.3591
  42
1
  0
VERTEX
  8
Element
  10
0.2275
  20
1.3591
  42
1
  0
VERTEX
  8
Element
  10
0.2225
  20
1.3591
  42
1
  0
SEQEND
  0
POLYLINE
  8
Element
  6
CONTINUOUS
  66
1
  70
0
  40
0.0098
  41
0.0098
  0
VERTEX
  8
Element
  10
0.225
  20
1.3591
  42
0
  0
VERTEX
  8
Element
  10
0.4
  20
1.3591
  42
0
  0
SEQEND
  0
POLYLINE
  8
Element
  6
CONTINUOUS
  66
1
  70
0
  40
0.0049
  41
0.0049
  0
VERTEX
  8
Element
  10
0.2225
  20
1.3591
  42
1
  0
VERTEX
  8
Element
  10
0.2275
  20
1.3591
  42
1
  0
VERTEX
  8
Element
  10
0.2225
  20
1.3591
  42
1
  0
SEQEND
  0
POLYLINE
  8
Element
  6
CONTINUOUS
  66
1
  70
0
  40
0.0049
  41
0.0049
  0
VERTEX
  8
Element
  10
0.3975
  20
1.3591
  42
1
  0
VERTEX
  8
Element
  10
0.4025
  20
1.3591
  42
1
  0
VERTEX
  8
Element
  10
0.3975
  20
1.3591
  42
1
  0
SEQEND
  0
POLYLINE
  8
Element
  6
CONTINUOUS
  66
1
  70
0
  40
0.0098
  41
0.0098
  0
VERTEX
  8
Element
  10
0.0
  20
1.3091
  42
0
  0
VERTEX
  8
Element
  10
0.0
  20
1.4091
  42
0
  0
SEQEND
  0
POLYLINE
  8
Element
  6
CONTINUOUS
  66
1
  70
0
  40
0.0049
  41
0.0049
  0
VERTEX
  8
Element
  10
-0.0025
  20
1.3091
  42
1
  0
VERTEX
  8
Element
  10
0.0025
  20
1.3091
  42
1
  0
VERTEX
  8
Element
  10
-0.0025
  20
1.3091
  42
1
  0
SEQEND
  0
POLYLINE
  8
Element
  6
CONTINUOUS
  66
1
  70
0
  40
0.0049
  41
0.0049
  0
VERTEX
  8
Element
  10
-0.0025
  20
1.4091
  42
1
  0
VERTEX
  8
Element
  10
0.0025
  20
1.4091
  42
1
  0
VERTEX
  8
Element
  10
-0.0025
  20
1.4091
  42
1
  0
SEQEND
  0
POLYLINE
  8
Element
  6
CONTINUOUS
  66
1
  70
0
  40
0.0098
  41
0.0098
  0
VERTEX
  8
Element
  10
0.0
  20
1.4091
  42
0
  0
VERTEX
  8
Element
  10
0.4
  20
1.4091
  42
0
  0
SEQEND
  0
POLYLINE
  8
Element
  6
CONTINUOUS
  66
1
  70
0
  40
0.0049
  41
0.0049
  0
VERTEX
  8
Element
  10
-0.0025
  20
1.4091
  42
1
  0
VERTEX
  8
Element
  10
0.0025
  20
1.4091
  42
1
  0
VERTEX
  8
Element
  10
-0.0025
  20
1.4091
  42
1
  0
SEQEND
  0
POLYLINE
  8
Element
  6
CONTINUOUS
  66
1
  70
0
  40
0.0049
  41
0.0049
  0
VERTEX
  8
Element
  10
0.3975
  20
1.4091
  42
1
  0
VERTEX
  8
Element
  10
0.4025
  20
1.4091
  42
1
  0
VERTEX
  8
Element
  10
0.3975
  20
1.4091
  42
1
  0
SEQEND
  0
POLYLINE
  8
Element
  6
CONTINUOUS
  66
1
  70
0
  40
0.0098
  41
0.0098
  0
VERTEX
  8
Element
  10
0.4
  20
1.4091
  42
0
  0
VERTEX
  8
Element
  10
0.4
  20
1.3091
  42
0
  0
SEQEND
  0
POLYLINE
  8
Element
  6
CONTINUOUS
  66
1
  70
0
  40
0.0049
  41
0.0049
  0
VERTEX
  8
Element
  10
0.3975
  20
1.4091
  42
1
  0
VERTEX
  8
Element
  10
0.4025
  20
1.4091
  42
1
  0
VERTEX
  8
Element
  10
0.3975
  20
1.4091
  42
1
  0
SEQEND
  0
POLYLINE
  8
Element
  6
CONTINUOUS
  66
1
  70
0
  40
0.0049
  41
0.0049
  0
VERTEX
  8
Element
  10
0.3975
  20
1.3091
  42
1
  0
VERTEX
  8
Element
  10
0.4025
  20
1.3091
  42
1
  0
VERTEX
  8
Element
  10
0.3975
  20
1.3091
  42
1
  0
SEQEND
  0
POLYLINE
  8
Element
  6
CONTINUOUS
  66
1
  70
0
  40
0.0098
  41
0.0098
  0
VERTEX
  8
Element
  10
0.4
  20
1.3091
  42
0
  0
VERTEX
  8
Element
  10
0.0
  20
1.3091
  42
0
  0
SEQEND
  0
POLYLINE
  8
Element
  6
CONTINUOUS
  66
1
  70
0
  40
0.0049
  41
0.0049
  0
VERTEX
  8
Element
  10
0.3975
  20
1.3091
  42
1
  0
VERTEX
  8
Element
  10
0.4025
  20
1.3091
  42
1
  0
VERTEX
  8
Element
  10
0.3975
  20
1.3091
  42
1
  0
SEQEND
  0
POLYLINE
  8
Element
  6
CONTINUOUS
  66
1
  70
0
  40
0.0049
  41
0.0049
  0
VERTEX
  8
Element
  10
-0.0025
  20
1.3091
  42
1
  0
VERTEX
  8
Element
  10
0.0025
  20
1.3091
  42
1
  0
VERTEX
  8
Element
  10
-0.0025
  20
1.3091
  42
1
  0
SEQEND
  0
POLYLINE
  8
Element
  6
CONTINUOUS
  66
1
  70
0
  40
0.0098
  41
0.0098
  0
VERTEX
  8
Element
  10
0.175
  20
0.9841
  42
0
  0
VERTEX
  8
Element
  10
0.225
  20
0.9341
  42
0
  0
SEQEND
  0
POLYLINE
  8
Element
  6
CONTINUOUS
  66
1
  70
0
  40
0.0049
  41
0.0049
  0
VERTEX
  8
Element
  10
0.1725
  20
0.9841
  42
1
  0
VERTEX
  8
Element
  10
0.1775
  20
0.9841
  42
1
  0
VERTEX
  8
Element
  10
0.1725
  20
0.9841
  42
1
  0
SEQEND
  0
POLYLINE
  8
Element
  6
CONTINUOUS
  66
1
  70
0
  40
0.0049
  41
0.0049
  0
VERTEX
  8
Element
  10
0.2225
  20
0.9341
  42
1
  0
VERTEX
  8
Element
  10
0.2275
  20
0.9341
  42
1
  0
VERTEX
  8
Element
  10
0.2225
  20
0.9341
  42
1
  0
SEQEND
  0
POLYLINE
  8
Element
  6
CONTINUOUS
  66
1
  70
0
  40
0.0098
  41
0.0098
  0
VERTEX
  8
Element
  10
0.175
  20
0.8841
  42
0
  0
VERTEX
  8
Element
  10
0.225
  20
0.9341
  42
0
  0
SEQEND
  0
POLYLINE
  8
Element
  6
CONTINUOUS
  66
1
  70
0
  40
0.0049
  41
0.0049
  0
VERTEX
  8
Element
  10
0.1725
  20
0.8841
  42
1
  0
VERTEX
  8
Element
  10
0.1775
  20
0.8841
  42
1
  0
VERTEX
  8
Element
  10
0.1725
  20
0.8841
  42
1
  0
SEQEND
  0
POLYLINE
  8
Element
  6
CONTINUOUS
  66
1
  70
0
  40
0.0049
  41
0.0049
  0
VERTEX
  8
Element
  10
0.2225
  20
0.9341
  42
1
  0
VERTEX
  8
Element
  10
0.2275
  20
0.9341
  42
1
  0
VERTEX
  8
Element
  10
0.2225
  20
0.9341
  42
1
  0
SEQEND
  0
POLYLINE
  8
Element
  6
CONTINUOUS
  66
1
  70
0
  40
0.0098
  41
0.0098
  0
VERTEX
  8
Element
  10
0.225
  20
0.9341
  42
0
  0
VERTEX
  8
Element
  10
0.4
  20
0.9341
  42
0
  0
SEQEND
  0
POLYLINE
  8
Element
  6
CONTINUOUS
  66
1
  70
0
  40
0.0049
  41
0.0049
  0
VERTEX
  8
Element
  10
0.2225
  20
0.9341
  42
1
  0
VERTEX
  8
Element
  10
0.2275
  20
0.9341
  42
1
  0
VERTEX
  8
Element
  10
0.2225
  20
0.9341
  42
1
  0
SEQEND
  0
POLYLINE
  8
Element
  6
CONTINUOUS
  66
1
  70
0
  40
0.0049
  41
0.0049
  0
VERTEX
  8
Element
  10
0.3975
  20
0.9341
  42
1
  0
VERTEX
  8
Element
  10
0.4025
  20
0.9341
  42
1
  0
VERTEX
  8
Element
  10
0.3975
  20
0.9341
  42
1
  0
SEQEND
  0
POLYLINE
  8
Element
  6
CONTINUOUS
  66
1
  70
0
  40
0.0098
  41
0.0098
  0
VERTEX
  8
Element
  10
0.0
  20
0.8841
  42
0
  0
VERTEX
  8
Element
  10
0.0
  20
0.9841
  42
0
  0
SEQEND
  0
POLYLINE
  8
Element
  6
CONTINUOUS
  66
1
  70
0
  40
0.0049
  41
0.0049
  0
VERTEX
  8
Element
  10
-0.0025
  20
0.8841
  42
1
  0
VERTEX
  8
Element
  10
0.0025
  20
0.8841
  42
1
  0
VERTEX
  8
Element
  10
-0.0025
  20
0.8841
  42
1
  0
SEQEND
  0
POLYLINE
  8
Element
  6
CONTINUOUS
  66
1
  70
0
  40
0.0049
  41
0.0049
  0
VERTEX
  8
Element
  10
-0.0025
  20
0.9841
  42
1
  0
VERTEX
  8
Element
  10
0.0025
  20
0.9841
  42
1
  0
VERTEX
  8
Element
  10
-0.0025
  20
0.9841
  42
1
  0
SEQEND
  0
POLYLINE
  8
Element
  6
CONTINUOUS
  66
1
  70
0
  40
0.0098
  41
0.0098
  0
VERTEX
  8
Element
  10
0.0
  20
0.9841
  42
0
  0
VERTEX
  8
Element
  10
0.4
  20
0.9841
  42
0
  0
SEQEND
  0
POLYLINE
  8
Element
  6
CONTINUOUS
  66
1
  70
0
  40
0.0049
  41
0.0049
  0
VERTEX
  8
Element
  10
-0.0025
  20
0.9841
  42
1
  0
VERTEX
  8
Element
  10
0.0025
  20
0.9841
  42
1
  0
VERTEX
  8
Element
  10
-0.0025
  20
0.9841
  42
1
  0
SEQEND
  0
POLYLINE
  8
Element
  6
CONTINUOUS
  66
1
  70
0
  40
0.0049
  41
0.0049
  0
VERTEX
  8
Element
  10
0.3975
  20
0.9841
  42
1
  0
VERTEX
  8
Element
  10
0.4025
  20
0.9841
  42
1
  0
VERTEX
  8
Element
  10
0.3975
  20
0.9841
  42
1
  0
SEQEND
  0
POLYLINE
  8
Element
  6
CONTINUOUS
  66
1
  70
0
  40
0.0098
  41
0.0098
  0
VERTEX
  8
Element
  10
0.4
  20
0.9841
  42
0
  0
VERTEX
  8
Element
  10
0.4
  20
0.8841
  42
0
  0
SEQEND
  0
POLYLINE
  8
Element
  6
CONTINUOUS
  66
1
  70
0
  40
0.0049
  41
0.0049
  0
VERTEX
  8
Element
  10
0.3975
  20
0.9841
  42
1
  0
VERTEX
  8
Element
  10
0.4025
  20
0.9841
  42
1
  0
VERTEX
  8
Element
  10
0.3975
  20
0.9841
  42
1
  0
SEQEND
  0
POLYLINE
  8
Element
  6
CONTINUOUS
  66
1
  70
0
  40
0.0049
  41
0.0049
  0
VERTEX
  8
Element
  10
0.3975
  20
0.8841
  42
1
  0
VERTEX
  8
Element
  10
0.4025
  20
0.8841
  42
1
  0
VERTEX
  8
Element
  10
0.3975
  20
0.8841
  42
1
  0
SEQEND
  0
POLYLINE
  8
Element
  6
CONTINUOUS
  66
1
  70
0
  40
0.0098
  41
0.0098
  0
VERTEX
  8
Element
  10
0.4
  20
0.8841
  42
0
  0
VERTEX
  8
Element
  10
0.0
  20
0.8841
  42
0
  0
SEQEND
  0
POLYLINE
  8
Element
  6
CONTINUOUS
  66
1
  70
0
  40
0.0049
  41
0.0049
  0
VERTEX
  8
Element
  10
0.3975
  20
0.8841
  42
1
  0
VERTEX
  8
Element
  10
0.4025
  20
0.8841
  42
1
  0
VERTEX
  8
Element
  10
0.3975
  20
0.8841
  42
1
  0
SEQEND
  0
POLYLINE
  8
Element
  6
CONTINUOUS
  66
1
  70
0
  40
0.0049
  41
0.0049
  0
VERTEX
  8
Element
  10
-0.0025
  20
0.8841
  42
1
  0
VERTEX
  8
Element
  10
0.0025
  20
0.8841
  42
1
  0
VERTEX
  8
Element
  10
-0.0025
  20
0.8841
  42
1
  0
SEQEND
  0
POLYLINE
  8
Element
  6
CONTINUOUS
  66
1
  70
0
  40
0.0098
  41
0.0098
  0
VERTEX
  8
Element
  10
0.175
  20
0.5591
  42
0
  0
VERTEX
  8
Element
  10
0.225
  20
0.5091
  42
0
  0
SEQEND
  0
POLYLINE
  8
Element
  6
CONTINUOUS
  66
1
  70
0
  40
0.0049
  41
0.0049
  0
VERTEX
  8
Element
  10
0.1725
  20
0.5591
  42
1
  0
VERTEX
  8
Element
  10
0.1775
  20
0.5591
  42
1
  0
VERTEX
  8
Element
  10
0.1725
  20
0.5591
  42
1
  0
SEQEND
  0
POLYLINE
  8
Element
  6
CONTINUOUS
  66
1
  70
0
  40
0.0049
  41
0.0049
  0
VERTEX
  8
Element
  10
0.2225
  20
0.5091
  42
1
  0
VERTEX
  8
Element
  10
0.2275
  20
0.5091
  42
1
  0
VERTEX
  8
Element
  10
0.2225
  20
0.5091
  42
1
  0
SEQEND
  0
POLYLINE
  8
Element
  6
CONTINUOUS
  66
1
  70
0
  40
0.0098
  41
0.0098
  0
VERTEX
  8
Element
  10
0.175
  20
0.4591
  42
0
  0
VERTEX
  8
Element
  10
0.225
  20
0.5091
  42
0
  0
SEQEND
  0
POLYLINE
  8
Element
  6
CONTINUOUS
  66
1
  70
0
  40
0.0049
  41
0.0049
  0
VERTEX
  8
Element
  10
0.1725
  20
0.4591
  42
1
  0
VERTEX
  8
Element
  10
0.1775
  20
0.4591
  42
1
  0
VERTEX
  8
Element
  10
0.1725
  20
0.4591
  42
1
  0
SEQEND
  0
POLYLINE
  8
Element
  6
CONTINUOUS
  66
1
  70
0
  40
0.0049
  41
0.0049
  0
VERTEX
  8
Element
  10
0.2225
  20
0.5091
  42
1
  0
VERTEX
  8
Element
  10
0.2275
  20
0.5091
  42
1
  0
VERTEX
  8
Element
  10
0.2225
  20
0.5091
  42
1
  0
SEQEND
  0
POLYLINE
  8
Element
  6
CONTINUOUS
  66
1
  70
0
  40
0.0098
  41
0.0098
  0
VERTEX
  8
Element
  10
0.225
  20
0.5091
  42
0
  0
VERTEX
  8
Element
  10
0.4
  20
0.5091
  42
0
  0
SEQEND
  0
POLYLINE
  8
Element
  6
CONTINUOUS
  66
1
  70
0
  40
0.0049
  41
0.0049
  0
VERTEX
  8
Element
  10
0.2225
  20
0.5091
  42
1
  0
VERTEX
  8
Element
  10
0.2275
  20
0.5091
  42
1
  0
VERTEX
  8
Element
  10
0.2225
  20
0.5091
  42
1
  0
SEQEND
  0
POLYLINE
  8
Element
  6
CONTINUOUS
  66
1
  70
0
  40
0.0049
  41
0.0049
  0
VERTEX
  8
Element
  10
0.3975
  20
0.5091
  42
1
  0
VERTEX
  8
Element
  10
0.4025
  20
0.5091
  42
1
  0
VERTEX
  8
Element
  10
0.3975
  20
0.5091
  42
1
  0
SEQEND
  0
POLYLINE
  8
Element
  6
CONTINUOUS
  66
1
  70
0
  40
0.0098
  41
0.0098
  0
VERTEX
  8
Element
  10
0.0
  20
0.4591
  42
0
  0
VERTEX
  8
Element
  10
0.0
  20
0.5591
  42
0
  0
SEQEND
  0
POLYLINE
  8
Element
  6
CONTINUOUS
  66
1
  70
0
  40
0.0049
  41
0.0049
  0
VERTEX
  8
Element
  10
-0.0025
  20
0.4591
  42
1
  0
VERTEX
  8
Element
  10
0.0025
  20
0.4591
  42
1
  0
VERTEX
  8
Element
  10
-0.0025
  20
0.4591
  42
1
  0
SEQEND
  0
POLYLINE
  8
Element
  6
CONTINUOUS
  66
1
  70
0
  40
0.0049
  41
0.0049
  0
VERTEX
  8
Element
  10
-0.0025
  20
0.5591
  42
1
  0
VERTEX
  8
Element
  10
0.0025
  20
0.5591
  42
1
  0
VERTEX
  8
Element
  10
-0.0025
  20
0.5591
  42
1
  0
SEQEND
  0
POLYLINE
  8
Element
  6
CONTINUOUS
  66
1
  70
0
  40
0.0098
  41
0.0098
  0
VERTEX
  8
Element
  10
0.0
  20
0.5591
  42
0
  0
VERTEX
  8
Element
  10
0.4
  20
0.5591
  42
0
  0
SEQEND
  0
POLYLINE
  8
Element
  6
CONTINUOUS
  66
1
  70
0
  40
0.0049
  41
0.0049
  0
VERTEX
  8
Element
  10
-0.0025
  20
0.5591
  42
1
  0
VERTEX
  8
Element
  10
0.0025
  20
0.5591
  42
1
  0
VERTEX
  8
Element
  10
-0.0025
  20
0.5591
  42
1
  0
SEQEND
  0
POLYLINE
  8
Element
  6
CONTINUOUS
  66
1
  70
0
  40
0.0049
  41
0.0049
  0
VERTEX
  8
Element
  10
0.3975
  20
0.5591
  42
1
  0
VERTEX
  8
Element
  10
0.4025
  20
0.5591
  42
1
  0
VERTEX
  8
Element
  10
0.3975
  20
0.5591
  42
1
  0
SEQEND
  0
POLYLINE
  8
Element
  6
CONTINUOUS
  66
1
  70
0
  40
0.0098
  41
0.0098
  0
VERTEX
  8
Element
  10
0.4
  20
0.5591
  42
0
  0
VERTEX
  8
Element
  10
0.4
  20
0.4591
  42
0
  0
SEQEND
  0
POLYLINE
  8
Element
  6
CONTINUOUS
  66
1
  70
0
  40
0.0049
  41
0.0049
  0
VERTEX
  8
Element
  10
0.3975
  20
0.5591
  42
1
  0
VERTEX
  8
Element
  10
0.4025
  20
0.5591
  42
1
  0
VERTEX
  8
Element
  10
0.3975
  20
0.5591
  42
1
  0
SEQEND
  0
POLYLINE
  8
Element
  6
CONTINUOUS
  66
1
  70
0
  40
0.0049
  41
0.0049
  0
VERTEX
  8
Element
  10
0.3975
  20
0.4591
  42
1
  0
VERTEX
  8
Element
  10
0.4025
  20
0.4591
  42
1
  0
VERTEX
  8
Element
  10
0.3975
  20
0.4591
  42
1
  0
SEQEND
  0
POLYLINE
  8
Element
  6
CONTINUOUS
  66
1
  70
0
  40
0.0098
  41
0.0098
  0
VERTEX
  8
Element
  10
0.4
  20
0.4591
  42
0
  0
VERTEX
  8
Element
  10
0.0
  20
0.4591
  42
0
  0
SEQEND
  0
POLYLINE
  8
Element
  6
CONTINUOUS
  66
1
  70
0
  40
0.0049
  41
0.0049
  0
VERTEX
  8
Element
  10
0.3975
  20
0.4591
  42
1
  0
VERTEX
  8
Element
  10
0.4025
  20
0.4591
  42
1
  0
VERTEX
  8
Element
  10
0.3975
  20
0.4591
  42
1
  0
SEQEND
  0
POLYLINE
  8
Element
  6
CONTINUOUS
  66
1
  70
0
  40
0.0049
  41
0.0049
  0
VERTEX
  8
Element
  10
-0.0025
  20
0.4591
  42
1
  0
VERTEX
  8
Element
  10
0.0025
  20
0.4591
  42
1
  0
VERTEX
  8
Element
  10
-0.0025
  20
0.4591
  42
1
  0
SEQEND
  0
POLYLINE
  8
Element
  6
CONTINUOUS
  66
1
  70
0
  40
0.0098
  41
0.0098
  0
VERTEX
  8
Element
  10
0.175
  20
0.1091
  42
0
  0
VERTEX
  8
Element
  10
0.225
  20
0.0591
  42
0
  0
SEQEND
  0
POLYLINE
  8
Element
  6
CONTINUOUS
  66
1
  70
0
  40
0.0049
  41
0.0049
  0
VERTEX
  8
Element
  10
0.1725
  20
0.1091
  42
1
  0
VERTEX
  8
Element
  10
0.1775
  20
0.1091
  42
1
  0
VERTEX
  8
Element
  10
0.1725
  20
0.1091
  42
1
  0
SEQEND
  0
POLYLINE
  8
Element
  6
CONTINUOUS
  66
1
  70
0
  40
0.0049
  41
0.0049
  0
VERTEX
  8
Element
  10
0.2225
  20
0.0591
  42
1
  0
VERTEX
  8
Element
  10
0.2275
  20
0.0591
  42
1
  0
VERTEX
  8
Element
  10
0.2225
  20
0.0591
  42
1
  0
SEQEND
  0
POLYLINE
  8
Element
  6
CONTINUOUS
  66
1
  70
0
  40
0.0098
  41
0.0098
  0
VERTEX
  8
Element
  10
0.175
  20
0.0091
  42
0
  0
VERTEX
  8
Element
  10
0.225
  20
0.0591
  42
0
  0
SEQEND
  0
POLYLINE
  8
Element
  6
CONTINUOUS
  66
1
  70
0
  40
0.0049
  41
0.0049
  0
VERTEX
  8
Element
  10
0.1725
  20
0.0091
  42
1
  0
VERTEX
  8
Element
  10
0.1775
  20
0.0091
  42
1
  0
VERTEX
  8
Element
  10
0.1725
  20
0.0091
  42
1
  0
SEQEND
  0
POLYLINE
  8
Element
  6
CONTINUOUS
  66
1
  70
0
  40
0.0049
  41
0.0049
  0
VERTEX
  8
Element
  10
0.2225
  20
0.0591
  42
1
  0
VERTEX
  8
Element
  10
0.2275
  20
0.0591
  42
1
  0
VERTEX
  8
Element
  10
0.2225
  20
0.0591
  42
1
  0
SEQEND
  0
POLYLINE
  8
Element
  6
CONTINUOUS
  66
1
  70
0
  40
0.0098
  41
0.0098
  0
VERTEX
  8
Element
  10
0.225
  20
0.0591
  42
0
  0
VERTEX
  8
Element
  10
0.4
  20
0.0591
  42
0
  0
SEQEND
  0
POLYLINE
  8
Element
  6
CONTINUOUS
  66
1
  70
0
  40
0.0049
  41
0.0049
  0
VERTEX
  8
Element
  10
0.2225
  20
0.0591
  42
1
  0
VERTEX
  8
Element
  10
0.2275
  20
0.0591
  42
1
  0
VERTEX
  8
Element
  10
0.2225
  20
0.0591
  42
1
  0
SEQEND
  0
POLYLINE
  8
Element
  6
CONTINUOUS
  66
1
  70
0
  40
0.0049
  41
0.0049
  0
VERTEX
  8
Element
  10
0.3975
  20
0.0591
  42
1
  0
VERTEX
  8
Element
  10
0.4025
  20
0.0591
  42
1
  0
VERTEX
  8
Element
  10
0.3975
  20
0.0591
  42
1
  0
SEQEND
  0
POLYLINE
  8
Element
  6
CONTINUOUS
  66
1
  70
0
  40
0.0098
  41
0.0098
  0
VERTEX
  8
Element
  10
0.0
  20
0.0091
  42
0
  0
VERTEX
  8
Element
  10
0.0
  20
0.1091
  42
0
  0
SEQEND
  0
POLYLINE
  8
Element
  6
CONTINUOUS
  66
1
  70
0
  40
0.0049
  41
0.0049
  0
VERTEX
  8
Element
  10
-0.0025
  20
0.0091
  42
1
  0
VERTEX
  8
Element
  10
0.0025
  20
0.0091
  42
1
  0
VERTEX
  8
Element
  10
-0.0025
  20
0.0091
  42
1
  0
SEQEND
  0
POLYLINE
  8
Element
  6
CONTINUOUS
  66
1
  70
0
  40
0.0049
  41
0.0049
  0
VERTEX
  8
Element
  10
-0.0025
  20
0.1091
  42
1
  0
VERTEX
  8
Element
  10
0.0025
  20
0.1091
  42
1
  0
VERTEX
  8
Element
  10
-0.0025
  20
0.1091
  42
1
  0
SEQEND
  0
POLYLINE
  8
Element
  6
CONTINUOUS
  66
1
  70
0
  40
0.0098
  41
0.0098
  0
VERTEX
  8
Element
  10
0.0
  20
0.1091
  42
0
  0
VERTEX
  8
Element
  10
0.4
  20
0.1091
  42
0
  0
SEQEND
  0
POLYLINE
  8
Element
  6
CONTINUOUS
  66
1
  70
0
  40
0.0049
  41
0.0049
  0
VERTEX
  8
Element
  10
-0.0025
  20
0.1091
  42
1
  0
VERTEX
  8
Element
  10
0.0025
  20
0.1091
  42
1
  0
VERTEX
  8
Element
  10
-0.0025
  20
0.1091
  42
1
  0
SEQEND
  0
POLYLINE
  8
Element
  6
CONTINUOUS
  66
1
  70
0
  40
0.0049
  41
0.0049
  0
VERTEX
  8
Element
  10
0.3975
  20
0.1091
  42
1
  0
VERTEX
  8
Element
  10
0.4025
  20
0.1091
  42
1
  0
VERTEX
  8
Element
  10
0.3975
  20
0.1091
  42
1
  0
SEQEND
  0
POLYLINE
  8
Element
  6
CONTINUOUS
  66
1
  70
0
  40
0.0098
  41
0.0098
  0
VERTEX
  8
Element
  10
0.4
  20
0.1091
  42
0
  0
VERTEX
  8
Element
  10
0.4
  20
0.0091
  42
0
  0
SEQEND
  0
POLYLINE
  8
Element
  6
CONTINUOUS
  66
1
  70
0
  40
0.0049
  41
0.0049
  0
VERTEX
  8
Element
  10
0.3975
  20
0.1091
  42
1
  0
VERTEX
  8
Element
  10
0.4025
  20
0.1091
  42
1
  0
VERTEX
  8
Element
  10
0.3975
  20
0.1091
  42
1
  0
SEQEND
  0
POLYLINE
  8
Element
  6
CONTINUOUS
  66
1
  70
0
  40
0.0049
  41
0.0049
  0
VERTEX
  8
Element
  10
0.3975
  20
0.0091
  42
1
  0
VERTEX
  8
Element
  10
0.4025
  20
0.0091
  42
1
  0
VERTEX
  8
Element
  10
0.3975
  20
0.0091
  42
1
  0
SEQEND
  0
POLYLINE
  8
Element
  6
CONTINUOUS
  66
1
  70
0
  40
0.0098
  41
0.0098
  0
VERTEX
  8
Element
  10
0.4
  20
0.0091
  42
0
  0
VERTEX
  8
Element
  10
0.0
  20
0.0091
  42
0
  0
SEQEND
  0
POLYLINE
  8
Element
  6
CONTINUOUS
  66
1
  70
0
  40
0.0049
  41
0.0049
  0
VERTEX
  8
Element
  10
0.3975
  20
0.0091
  42
1
  0
VERTEX
  8
Element
  10
0.4025
  20
0.0091
  42
1
  0
VERTEX
  8
Element
  10
0.3975
  20
0.0091
  42
1
  0
SEQEND
  0
POLYLINE
  8
Element
  6
CONTINUOUS
  66
1
  70
0
  40
0.0049
  41
0.0049
  0
VERTEX
  8
Element
  10
-0.0025
  20
0.0091
  42
1
  0
VERTEX
  8
Element
  10
0.0025
  20
0.0091
  42
1
  0
VERTEX
  8
Element
  10
-0.0025
  20
0.0091
  42
1
  0
SEQEND
  0
POLYLINE
  8
Element
  6
CONTINUOUS
  66
1
  70
0
  40
0.0098
  41
0.0098
  0
VERTEX
  8
Element
  10
1.9
  20
4.7341
  42
0
  0
VERTEX
  8
Element
  10
1.925
  20
4.7841
  42
0
  0
SEQEND
  0
POLYLINE
  8
Element
  6
CONTINUOUS
  66
1
  70
0
  40
0.0049
  41
0.0049
  0
VERTEX
  8
Element
  10
1.8975
  20
4.7341
  42
1
  0
VERTEX
  8
Element
  10
1.9025
  20
4.7341
  42
1
  0
VERTEX
  8
Element
  10
1.8975
  20
4.7341
  42
1
  0
SEQEND
  0
POLYLINE
  8
Element
  6
CONTINUOUS
  66
1
  70
0
  40
0.0049
  41
0.0049
  0
VERTEX
  8
Element
  10
1.9225
  20
4.7841
  42
1
  0
VERTEX
  8
Element
  10
1.9275
  20
4.7841
  42
1
  0
VERTEX
  8
Element
  10
1.9225
  20
4.7841
  42
1
  0
SEQEND
  0
POLYLINE
  8
Element
  6
CONTINUOUS
  66
1
  70
0
  40
0.0098
  41
0.0098
  0
VERTEX
  8
Element
  10
1.85
  20
4.8341
  42
0
  0
VERTEX
  8
Element
  10
1.9
  20
4.7341
  42
0
  0
SEQEND
  0
POLYLINE
  8
Element
  6
CONTINUOUS
  66
1
  70
0
  40
0.0049
  41
0.0049
  0
VERTEX
  8
Element
  10
1.8475
  20
4.8341
  42
1
  0
VERTEX
  8
Element
  10
1.8525
  20
4.8341
  42
1
  0
VERTEX
  8
Element
  10
1.8475
  20
4.8341
  42
1
  0
SEQEND
  0
POLYLINE
  8
Element
  6
CONTINUOUS
  66
1
  70
0
  40
0.0049
  41
0.0049
  0
VERTEX
  8
Element
  10
1.8975
  20
4.7341
  42
1
  0
VERTEX
  8
Element
  10
1.9025
  20
4.7341
  42
1
  0
VERTEX
  8
Element
  10
1.8975
  20
4.7341
  42
1
  0
SEQEND
  0
POLYLINE
  8
Element
  6
CONTINUOUS
  66
1
  70
0
  40
0.0098
  41
0.0098
  0
VERTEX
  8
Element
  10
1.8
  20
4.7341
  42
0
  0
VERTEX
  8
Element
  10
1.85
  20
4.8341
  42
0
  0
SEQEND
  0
POLYLINE
  8
Element
  6
CONTINUOUS
  66
1
  70
0
  40
0.0049
  41
0.0049
  0
VERTEX
  8
Element
  10
1.7975
  20
4.7341
  42
1
  0
VERTEX
  8
Element
  10
1.8025
  20
4.7341
  42
1
  0
VERTEX
  8
Element
  10
1.7975
  20
4.7341
  42
1
  0
SEQEND
  0
POLYLINE
  8
Element
  6
CONTINUOUS
  66
1
  70
0
  40
0.0049
  41
0.0049
  0
VERTEX
  8
Element
  10
1.8475
  20
4.8341
  42
1
  0
VERTEX
  8
Element
  10
1.8525
  20
4.8341
  42
1
  0
VERTEX
  8
Element
  10
1.8475
  20
4.8341
  42
1
  0
SEQEND
  0
POLYLINE
  8
Element
  6
CONTINUOUS
  66
1
  70
0
  40
0.0098
  41
0.0098
  0
VERTEX
  8
Element
  10
1.75
  20
4.8341
  42
0
  0
VERTEX
  8
Element
  10
1.8
  20
4.7341
  42
0
  0
SEQEND
  0
POLYLINE
  8
Element
  6
CONTINUOUS
  66
1
  70
0
  40
0.0049
  41
0.0049
  0
VERTEX
  8
Element
  10
1.7475
  20
4.8341
  42
1
  0
VERTEX
  8
Element
  10
1.7525
  20
4.8341
  42
1
  0
VERTEX
  8
Element
  10
1.7475
  20
4.8341
  42
1
  0
SEQEND
  0
POLYLINE
  8
Element
  6
CONTINUOUS
  66
1
  70
0
  40
0.0049
  41
0.0049
  0
VERTEX
  8
Element
  10
1.7975
  20
4.7341
  42
1
  0
VERTEX
  8
Element
  10
1.8025
  20
4.7341
  42
1
  0
VERTEX
  8
Element
  10
1.7975
  20
4.7341
  42
1
  0
SEQEND
  0
POLYLINE
  8
Element
  6
CONTINUOUS
  66
1
  70
0
  40
0.0098
  41
0.0098
  0
VERTEX
  8
Element
  10
1.7
  20
4.7341
  42
0
  0
VERTEX
  8
Element
  10
1.75
  20
4.8341
  42
0
  0
SEQEND
  0
POLYLINE
  8
Element
  6
CONTINUOUS
  66
1
  70
0
  40
0.0049
  41
0.0049
  0
VERTEX
  8
Element
  10
1.6975
  20
4.7341
  42
1
  0
VERTEX
  8
Element
  10
1.7025
  20
4.7341
  42
1
  0
VERTEX
  8
Element
  10
1.6975
  20
4.7341
  42
1
  0
SEQEND
  0
POLYLINE
  8
Element
  6
CONTINUOUS
  66
1
  70
0
  40
0.0049
  41
0.0049
  0
VERTEX
  8
Element
  10
1.7475
  20
4.8341
  42
1
  0
VERTEX
  8
Element
  10
1.7525
  20
4.8341
  42
1
  0
VERTEX
  8
Element
  10
1.7475
  20
4.8341
  42
1
  0
SEQEND
  0
POLYLINE
  8
Element
  6
CONTINUOUS
  66
1
  70
0
  40
0.0098
  41
0.0098
  0
VERTEX
  8
Element
  10
1.65
  20
4.8341
  42
0
  0
VERTEX
  8
Element
  10
1.7
  20
4.7341
  42
0
  0
SEQEND
  0
POLYLINE
  8
Element
  6
CONTINUOUS
  66
1
  70
0
  40
0.0049
  41
0.0049
  0
VERTEX
  8
Element
  10
1.6475
  20
4.8341
  42
1
  0
VERTEX
  8
Element
  10
1.6525
  20
4.8341
  42
1
  0
VERTEX
  8
Element
  10
1.6475
  20
4.8341
  42
1
  0
SEQEND
  0
POLYLINE
  8
Element
  6
CONTINUOUS
  66
1
  70
0
  40
0.0049
  41
0.0049
  0
VERTEX
  8
Element
  10
1.6975
  20
4.7341
  42
1
  0
VERTEX
  8
Element
  10
1.7025
  20
4.7341
  42
1
  0
VERTEX
  8
Element
  10
1.6975
  20
4.7341
  42
1
  0
SEQEND
  0
POLYLINE
  8
Element
  6
CONTINUOUS
  66
1
  70
0
  40
0.0098
  41
0.0098
  0
VERTEX
  8
Element
  10
1.625
  20
4.7841
  42
0
  0
VERTEX
  8
Element
  10
1.65
  20
4.8341
  42
0
  0
SEQEND
  0
POLYLINE
  8
Element
  6
CONTINUOUS
  66
1
  70
0
  40
0.0049
  41
0.0049
  0
VERTEX
  8
Element
  10
1.6225
  20
4.7841
  42
1
  0
VERTEX
  8
Element
  10
1.6275
  20
4.7841
  42
1
  0
VERTEX
  8
Element
  10
1.6225
  20
4.7841
  42
1
  0
SEQEND
  0
POLYLINE
  8
Element
  6
CONTINUOUS
  66
1
  70
0
  40
0.0049
  41
0.0049
  0
VERTEX
  8
Element
  10
1.6475
  20
4.8341
  42
1
  0
VERTEX
  8
Element
  10
1.6525
  20
4.8341
  42
1
  0
VERTEX
  8
Element
  10
1.6475
  20
4.8341
  42
1
  0
SEQEND
  0
POLYLINE
  8
Element
  6
CONTINUOUS
  66
1
  70
0
  40
0.0098
  41
0.0098
  0
VERTEX
  8
Element
  10
1.875
  20
4.3591
  42
0
  0
VERTEX
  8
Element
  10
1.9
  20
4.4091
  42
0
  0
SEQEND
  0
POLYLINE
  8
Element
  6
CONTINUOUS
  66
1
  70
0
  40
0.0049
  41
0.0049
  0
VERTEX
  8
Element
  10
1.8725
  20
4.3591
  42
1
  0
VERTEX
  8
Element
  10
1.8775
  20
4.3591
  42
1
  0
VERTEX
  8
Element
  10
1.8725
  20
4.3591
  42
1
  0
SEQEND
  0
POLYLINE
  8
Element
  6
CONTINUOUS
  66
1
  70
0
  40
0.0049
  41
0.0049
  0
VERTEX
  8
Element
  10
1.8975
  20
4.4091
  42
1
  0
VERTEX
  8
Element
  10
1.9025
  20
4.4091
  42
1
  0
VERTEX
  8
Element
  10
1.8975
  20
4.4091
  42
1
  0
SEQEND
  0
POLYLINE
  8
Element
  6
CONTINUOUS
  66
1
  70
0
  40
0.0098
  41
0.0098
  0
VERTEX
  8
Element
  10
1.825
  20
4.4591
  42
0
  0
VERTEX
  8
Element
  10
1.875
  20
4.3591
  42
0
  0
SEQEND
  0
POLYLINE
  8
Element
  6
CONTINUOUS
  66
1
  70
0
  40
0.0049
  41
0.0049
  0
VERTEX
  8
Element
  10
1.8225
  20
4.4591
  42
1
  0
VERTEX
  8
Element
  10
1.8275
  20
4.4591
  42
1
  0
VERTEX
  8
Element
  10
1.8225
  20
4.4591
  42
1
  0
SEQEND
  0
POLYLINE
  8
Element
  6
CONTINUOUS
  66
1
  70
0
  40
0.0049
  41
0.0049
  0
VERTEX
  8
Element
  10
1.8725
  20
4.3591
  42
1
  0
VERTEX
  8
Element
  10
1.8775
  20
4.3591
  42
1
  0
VERTEX
  8
Element
  10
1.8725
  20
4.3591
  42
1
  0
SEQEND
  0
POLYLINE
  8
Element
  6
CONTINUOUS
  66
1
  70
0
  40
0.0098
  41
0.0098
  0
VERTEX
  8
Element
  10
1.775
  20
4.3591
  42
0
  0
VERTEX
  8
Element
  10
1.825
  20
4.4591
  42
0
  0
SEQEND
  0
POLYLINE
  8
Element
  6
CONTINUOUS
  66
1
  70
0
  40
0.0049
  41
0.0049
  0
VERTEX
  8
Element
  10
1.7725
  20
4.3591
  42
1
  0
VERTEX
  8
Element
  10
1.7775
  20
4.3591
  42
1
  0
VERTEX
  8
Element
  10
1.7725
  20
4.3591
  42
1
  0
SEQEND
  0
POLYLINE
  8
Element
  6
CONTINUOUS
  66
1
  70
0
  40
0.0049
  41
0.0049
  0
VERTEX
  8
Element
  10
1.8225
  20
4.4591
  42
1
  0
VERTEX
  8
Element
  10
1.8275
  20
4.4591
  42
1
  0
VERTEX
  8
Element
  10
1.8225
  20
4.4591
  42
1
  0
SEQEND
  0
POLYLINE
  8
Element
  6
CONTINUOUS
  66
1
  70
0
  40
0.0098
  41
0.0098
  0
VERTEX
  8
Element
  10
1.725
  20
4.4591
  42
0
  0
VERTEX
  8
Element
  10
1.775
  20
4.3591
  42
0
  0
SEQEND
  0
POLYLINE
  8
Element
  6
CONTINUOUS
  66
1
  70
0
  40
0.0049
  41
0.0049
  0
VERTEX
  8
Element
  10
1.7225
  20
4.4591
  42
1
  0
VERTEX
  8
Element
  10
1.7275
  20
4.4591
  42
1
  0
VERTEX
  8
Element
  10
1.7225
  20
4.4591
  42
1
  0
SEQEND
  0
POLYLINE
  8
Element
  6
CONTINUOUS
  66
1
  70
0
  40
0.0049
  41
0.0049
  0
VERTEX
  8
Element
  10
1.7725
  20
4.3591
  42
1
  0
VERTEX
  8
Element
  10
1.7775
  20
4.3591
  42
1
  0
VERTEX
  8
Element
  10
1.7725
  20
4.3591
  42
1
  0
SEQEND
  0
POLYLINE
  8
Element
  6
CONTINUOUS
  66
1
  70
0
  40
0.0098
  41
0.0098
  0
VERTEX
  8
Element
  10
1.675
  20
4.3591
  42
0
  0
VERTEX
  8
Element
  10
1.725
  20
4.4591
  42
0
  0
SEQEND
  0
POLYLINE
  8
Element
  6
CONTINUOUS
  66
1
  70
0
  40
0.0049
  41
0.0049
  0
VERTEX
  8
Element
  10
1.6725
  20
4.3591
  42
1
  0
VERTEX
  8
Element
  10
1.6775
  20
4.3591
  42
1
  0
VERTEX
  8
Element
  10
1.6725
  20
4.3591
  42
1
  0
SEQEND
  0
POLYLINE
  8
Element
  6
CONTINUOUS
  66
1
  70
0
  40
0.0049
  41
0.0049
  0
VERTEX
  8
Element
  10
1.7225
  20
4.4591
  42
1
  0
VERTEX
  8
Element
  10
1.7275
  20
4.4591
  42
1
  0
VERTEX
  8
Element
  10
1.7225
  20
4.4591
  42
1
  0
SEQEND
  0
POLYLINE
  8
Element
  6
CONTINUOUS
  66
1
  70
0
  40
0.0098
  41
0.0098
  0
VERTEX
  8
Element
  10
1.625
  20
4.4591
  42
0
  0
VERTEX
  8
Element
  10
1.675
  20
4.3591
  42
0
  0
SEQEND
  0
POLYLINE
  8
Element
  6
CONTINUOUS
  66
1
  70
0
  40
0.0049
  41
0.0049
  0
VERTEX
  8
Element
  10
1.6225
  20
4.4591
  42
1
  0
VERTEX
  8
Element
  10
1.6275
  20
4.4591
  42
1
  0
VERTEX
  8
Element
  10
1.6225
  20
4.4591
  42
1
  0
SEQEND
  0
POLYLINE
  8
Element
  6
CONTINUOUS
  66
1
  70
0
  40
0.0049
  41
0.0049
  0
VERTEX
  8
Element
  10
1.6725
  20
4.3591
  42
1
  0
VERTEX
  8
Element
  10
1.6775
  20
4.3591
  42
1
  0
VERTEX
  8
Element
  10
1.6725
  20
4.3591
  42
1
  0
SEQEND
  0
POLYLINE
  8
Element
  6
CONTINUOUS
  66
1
  70
0
  40
0.0098
  41
0.0098
  0
VERTEX
  8
Element
  10
1.6
  20
4.4091
  42
0
  0
VERTEX
  8
Element
  10
1.625
  20
4.4591
  42
0
  0
SEQEND
  0
POLYLINE
  8
Element
  6
CONTINUOUS
  66
1
  70
0
  40
0.0049
  41
0.0049
  0
VERTEX
  8
Element
  10
1.5975
  20
4.4091
  42
1
  0
VERTEX
  8
Element
  10
1.6025
  20
4.4091
  42
1
  0
VERTEX
  8
Element
  10
1.5975
  20
4.4091
  42
1
  0
SEQEND
  0
POLYLINE
  8
Element
  6
CONTINUOUS
  66
1
  70
0
  40
0.0049
  41
0.0049
  0
VERTEX
  8
Element
  10
1.6225
  20
4.4591
  42
1
  0
VERTEX
  8
Element
  10
1.6275
  20
4.4591
  42
1
  0
VERTEX
  8
Element
  10
1.6225
  20
4.4591
  42
1
  0
SEQEND
  0
POLYLINE
  8
Element
  6
CONTINUOUS
  66
1
  70
0
  40
0.0098
  41
0.0098
  0
VERTEX
  8
Element
  10
1.9
  20
3.4341
  42
0
  0
VERTEX
  8
Element
  10
1.925
  20
3.4841
  42
0
  0
SEQEND
  0
POLYLINE
  8
Element
  6
CONTINUOUS
  66
1
  70
0
  40
0.0049
  41
0.0049
  0
VERTEX
  8
Element
  10
1.8975
  20
3.4341
  42
1
  0
VERTEX
  8
Element
  10
1.9025
  20
3.4341
  42
1
  0
VERTEX
  8
Element
  10
1.8975
  20
3.4341
  42
1
  0
SEQEND
  0
POLYLINE
  8
Element
  6
CONTINUOUS
  66
1
  70
0
  40
0.0049
  41
0.0049
  0
VERTEX
  8
Element
  10
1.9225
  20
3.4841
  42
1
  0
VERTEX
  8
Element
  10
1.9275
  20
3.4841
  42
1
  0
VERTEX
  8
Element
  10
1.9225
  20
3.4841
  42
1
  0
SEQEND
  0
POLYLINE
  8
Element
  6
CONTINUOUS
  66
1
  70
0
  40
0.0098
  41
0.0098
  0
VERTEX
  8
Element
  10
1.85
  20
3.5341
  42
0
  0
VERTEX
  8
Element
  10
1.9
  20
3.4341
  42
0
  0
SEQEND
  0
POLYLINE
  8
Element
  6
CONTINUOUS
  66
1
  70
0
  40
0.0049
  41
0.0049
  0
VERTEX
  8
Element
  10
1.8475
  20
3.5341
  42
1
  0
VERTEX
  8
Element
  10
1.8525
  20
3.5341
  42
1
  0
VERTEX
  8
Element
  10
1.8475
  20
3.5341
  42
1
  0
SEQEND
  0
POLYLINE
  8
Element
  6
CONTINUOUS
  66
1
  70
0
  40
0.0049
  41
0.0049
  0
VERTEX
  8
Element
  10
1.8975
  20
3.4341
  42
1
  0
VERTEX
  8
Element
  10
1.9025
  20
3.4341
  42
1
  0
VERTEX
  8
Element
  10
1.8975
  20
3.4341
  42
1
  0
SEQEND
  0
POLYLINE
  8
Element
  6
CONTINUOUS
  66
1
  70
0
  40
0.0098
  41
0.0098
  0
VERTEX
  8
Element
  10
1.8
  20
3.4341
  42
0
  0
VERTEX
  8
Element
  10
1.85
  20
3.5341
  42
0
  0
SEQEND
  0
POLYLINE
  8
Element
  6
CONTINUOUS
  66
1
  70
0
  40
0.0049
  41
0.0049
  0
VERTEX
  8
Element
  10
1.7975
  20
3.4341
  42
1
  0
VERTEX
  8
Element
  10
1.8025
  20
3.4341
  42
1
  0
VERTEX
  8
Element
  10
1.7975
  20
3.4341
  42
1
  0
SEQEND
  0
POLYLINE
  8
Element
  6
CONTINUOUS
  66
1
  70
0
  40
0.0049
  41
0.0049
  0
VERTEX
  8
Element
  10
1.8475
  20
3.5341
  42
1
  0
VERTEX
  8
Element
  10
1.8525
  20
3.5341
  42
1
  0
VERTEX
  8
Element
  10
1.8475
  20
3.5341
  42
1
  0
SEQEND
  0
POLYLINE
  8
Element
  6
CONTINUOUS
  66
1
  70
0
  40
0.0098
  41
0.0098
  0
VERTEX
  8
Element
  10
1.75
  20
3.5341
  42
0
  0
VERTEX
  8
Element
  10
1.8
  20
3.4341
  42
0
  0
SEQEND
  0
POLYLINE
  8
Element
  6
CONTINUOUS
  66
1
  70
0
  40
0.0049
  41
0.0049
  0
VERTEX
  8
Element
  10
1.7475
  20
3.5341
  42
1
  0
VERTEX
  8
Element
  10
1.7525
  20
3.5341
  42
1
  0
VERTEX
  8
Element
  10
1.7475
  20
3.5341
  42
1
  0
SEQEND
  0
POLYLINE
  8
Element
  6
CONTINUOUS
  66
1
  70
0
  40
0.0049
  41
0.0049
  0
VERTEX
  8
Element
  10
1.7975
  20
3.4341
  42
1
  0
VERTEX
  8
Element
  10
1.8025
  20
3.4341
  42
1
  0
VERTEX
  8
Element
  10
1.7975
  20
3.4341
  42
1
  0
SEQEND
  0
POLYLINE
  8
Element
  6
CONTINUOUS
  66
1
  70
0
  40
0.0098
  41
0.0098
  0
VERTEX
  8
Element
  10
1.7
  20
3.4341
  42
0
  0
VERTEX
  8
Element
  10
1.75
  20
3.5341
  42
0
  0
SEQEND
  0
POLYLINE
  8
Element
  6
CONTINUOUS
  66
1
  70
0
  40
0.0049
  41
0.0049
  0
VERTEX
  8
Element
  10
1.6975
  20
3.4341
  42
1
  0
VERTEX
  8
Element
  10
1.7025
  20
3.4341
  42
1
  0
VERTEX
  8
Element
  10
1.6975
  20
3.4341
  42
1
  0
SEQEND
  0
POLYLINE
  8
Element
  6
CONTINUOUS
  66
1
  70
0
  40
0.0049
  41
0.0049
  0
VERTEX
  8
Element
  10
1.7475
  20
3.5341
  42
1
  0
VERTEX
  8
Element
  10
1.7525
  20
3.5341
  42
1
  0
VERTEX
  8
Element
  10
1.7475
  20
3.5341
  42
1
  0
SEQEND
  0
POLYLINE
  8
Element
  6
CONTINUOUS
  66
1
  70
0
  40
0.0098
  41
0.0098
  0
VERTEX
  8
Element
  10
1.65
  20
3.5341
  42
0
  0
VERTEX
  8
Element
  10
1.7
  20
3.4341
  42
0
  0
SEQEND
  0
POLYLINE
  8
Element
  6
CONTINUOUS
  66
1
  70
0
  40
0.0049
  41
0.0049
  0
VERTEX
  8
Element
  10
1.6475
  20
3.5341
  42
1
  0
VERTEX
  8
Element
  10
1.6525
  20
3.5341
  42
1
  0
VERTEX
  8
Element
  10
1.6475
  20
3.5341
  42
1
  0
SEQEND
  0
POLYLINE
  8
Element
  6
CONTINUOUS
  66
1
  70
0
  40
0.0049
  41
0.0049
  0
VERTEX
  8
Element
  10
1.6975
  20
3.4341
  42
1
  0
VERTEX
  8
Element
  10
1.7025
  20
3.4341
  42
1
  0
VERTEX
  8
Element
  10
1.6975
  20
3.4341
  42
1
  0
SEQEND
  0
POLYLINE
  8
Element
  6
CONTINUOUS
  66
1
  70
0
  40
0.0098
  41
0.0098
  0
VERTEX
  8
Element
  10
1.625
  20
3.4841
  42
0
  0
VERTEX
  8
Element
  10
1.65
  20
3.5341
  42
0
  0
SEQEND
  0
POLYLINE
  8
Element
  6
CONTINUOUS
  66
1
  70
0
  40
0.0049
  41
0.0049
  0
VERTEX
  8
Element
  10
1.6225
  20
3.4841
  42
1
  0
VERTEX
  8
Element
  10
1.6275
  20
3.4841
  42
1
  0
VERTEX
  8
Element
  10
1.6225
  20
3.4841
  42
1
  0
SEQEND
  0
POLYLINE
  8
Element
  6
CONTINUOUS
  66
1
  70
0
  40
0.0049
  41
0.0049
  0
VERTEX
  8
Element
  10
1.6475
  20
3.5341
  42
1
  0
VERTEX
  8
Element
  10
1.6525
  20
3.5341
  42
1
  0
VERTEX
  8
Element
  10
1.6475
  20
3.5341
  42
1
  0
SEQEND
  0
POLYLINE
  8
Element
  6
CONTINUOUS
  66
1
  70
0
  40
0.0098
  41
0.0098
  0
VERTEX
  8
Element
  10
1.875
  20
2.9341
  42
0
  0
VERTEX
  8
Element
  10
1.9
  20
2.9841
  42
0
  0
SEQEND
  0
POLYLINE
  8
Element
  6
CONTINUOUS
  66
1
  70
0
  40
0.0049
  41
0.0049
  0
VERTEX
  8
Element
  10
1.8725
  20
2.9341
  42
1
  0
VERTEX
  8
Element
  10
1.8775
  20
2.9341
  42
1
  0
VERTEX
  8
Element
  10
1.8725
  20
2.9341
  42
1
  0
SEQEND
  0
POLYLINE
  8
Element
  6
CONTINUOUS
  66
1
  70
0
  40
0.0049
  41
0.0049
  0
VERTEX
  8
Element
  10
1.8975
  20
2.9841
  42
1
  0
VERTEX
  8
Element
  10
1.9025
  20
2.9841
  42
1
  0
VERTEX
  8
Element
  10
1.8975
  20
2.9841
  42
1
  0
SEQEND
  0
POLYLINE
  8
Element
  6
CONTINUOUS
  66
1
  70
0
  40
0.0098
  41
0.0098
  0
VERTEX
  8
Element
  10
1.825
  20
3.0341
  42
0
  0
VERTEX
  8
Element
  10
1.875
  20
2.9341
  42
0
  0
SEQEND
  0
POLYLINE
  8
Element
  6
CONTINUOUS
  66
1
  70
0
  40
0.0049
  41
0.0049
  0
VERTEX
  8
Element
  10
1.8225
  20
3.0341
  42
1
  0
VERTEX
  8
Element
  10
1.8275
  20
3.0341
  42
1
  0
VERTEX
  8
Element
  10
1.8225
  20
3.0341
  42
1
  0
SEQEND
  0
POLYLINE
  8
Element
  6
CONTINUOUS
  66
1
  70
0
  40
0.0049
  41
0.0049
  0
VERTEX
  8
Element
  10
1.8725
  20
2.9341
  42
1
  0
VERTEX
  8
Element
  10
1.8775
  20
2.9341
  42
1
  0
VERTEX
  8
Element
  10
1.8725
  20
2.9341
  42
1
  0
SEQEND
  0
POLYLINE
  8
Element
  6
CONTINUOUS
  66
1
  70
0
  40
0.0098
  41
0.0098
  0
VERTEX
  8
Element
  10
1.775
  20
2.9341
  42
0
  0
VERTEX
  8
Element
  10
1.825
  20
3.0341
  42
0
  0
SEQEND
  0
POLYLINE
  8
Element
  6
CONTINUOUS
  66
1
  70
0
  40
0.0049
  41
0.0049
  0
VERTEX
  8
Element
  10
1.7725
  20
2.9341
  42
1
  0
VERTEX
  8
Element
  10
1.7775
  20
2.9341
  42
1
  0
VERTEX
  8
Element
  10
1.7725
  20
2.9341
  42
1
  0
SEQEND
  0
POLYLINE
  8
Element
  6
CONTINUOUS
  66
1
  70
0
  40
0.0049
  41
0.0049
  0
VERTEX
  8
Element
  10
1.8225
  20
3.0341
  42
1
  0
VERTEX
  8
Element
  10
1.8275
  20
3.0341
  42
1
  0
VERTEX
  8
Element
  10
1.8225
  20
3.0341
  42
1
  0
SEQEND
  0
POLYLINE
  8
Element
  6
CONTINUOUS
  66
1
  70
0
  40
0.0098
  41
0.0098
  0
VERTEX
  8
Element
  10
1.725
  20
3.0341
  42
0
  0
VERTEX
  8
Element
  10
1.775
  20
2.9341
  42
0
  0
SEQEND
  0
POLYLINE
  8
Element
  6
CONTINUOUS
  66
1
  70
0
  40
0.0049
  41
0.0049
  0
VERTEX
  8
Element
  10
1.7225
  20
3.0341
  42
1
  0
VERTEX
  8
Element
  10
1.7275
  20
3.0341
  42
1
  0
VERTEX
  8
Element
  10
1.7225
  20
3.0341
  42
1
  0
SEQEND
  0
POLYLINE
  8
Element
  6
CONTINUOUS
  66
1
  70
0
  40
0.0049
  41
0.0049
  0
VERTEX
  8
Element
  10
1.7725
  20
2.9341
  42
1
  0
VERTEX
  8
Element
  10
1.7775
  20
2.9341
  42
1
  0
VERTEX
  8
Element
  10
1.7725
  20
2.9341
  42
1
  0
SEQEND
  0
POLYLINE
  8
Element
  6
CONTINUOUS
  66
1
  70
0
  40
0.0098
  41
0.0098
  0
VERTEX
  8
Element
  10
1.675
  20
2.9341
  42
0
  0
VERTEX
  8
Element
  10
1.725
  20
3.0341
  42
0
  0
SEQEND
  0
POLYLINE
  8
Element
  6
CONTINUOUS
  66
1
  70
0
  40
0.0049
  41
0.0049
  0
VERTEX
  8
Element
  10
1.6725
  20
2.9341
  42
1
  0
VERTEX
  8
Element
  10
1.6775
  20
2.9341
  42
1
  0
VERTEX
  8
Element
  10
1.6725
  20
2.9341
  42
1
  0
SEQEND
  0
POLYLINE
  8
Element
  6
CONTINUOUS
  66
1
  70
0
  40
0.0049
  41
0.0049
  0
VERTEX
  8
Element
  10
1.7225
  20
3.0341
  42
1
  0
VERTEX
  8
Element
  10
1.7275
  20
3.0341
  42
1
  0
VERTEX
  8
Element
  10
1.7225
  20
3.0341
  42
1
  0
SEQEND
  0
POLYLINE
  8
Element
  6
CONTINUOUS
  66
1
  70
0
  40
0.0098
  41
0.0098
  0
VERTEX
  8
Element
  10
1.625
  20
3.0341
  42
0
  0
VERTEX
  8
Element
  10
1.675
  20
2.9341
  42
0
  0
SEQEND
  0
POLYLINE
  8
Element
  6
CONTINUOUS
  66
1
  70
0
  40
0.0049
  41
0.0049
  0
VERTEX
  8
Element
  10
1.6225
  20
3.0341
  42
1
  0
VERTEX
  8
Element
  10
1.6275
  20
3.0341
  42
1
  0
VERTEX
  8
Element
  10
1.6225
  20
3.0341
  42
1
  0
SEQEND
  0
POLYLINE
  8
Element
  6
CONTINUOUS
  66
1
  70
0
  40
0.0049
  41
0.0049
  0
VERTEX
  8
Element
  10
1.6725
  20
2.9341
  42
1
  0
VERTEX
  8
Element
  10
1.6775
  20
2.9341
  42
1
  0
VERTEX
  8
Element
  10
1.6725
  20
2.9341
  42
1
  0
SEQEND
  0
POLYLINE
  8
Element
  6
CONTINUOUS
  66
1
  70
0
  40
0.0098
  41
0.0098
  0
VERTEX
  8
Element
  10
1.6
  20
2.9841
  42
0
  0
VERTEX
  8
Element
  10
1.625
  20
3.0341
  42
0
  0
SEQEND
  0
POLYLINE
  8
Element
  6
CONTINUOUS
  66
1
  70
0
  40
0.0049
  41
0.0049
  0
VERTEX
  8
Element
  10
1.5975
  20
2.9841
  42
1
  0
VERTEX
  8
Element
  10
1.6025
  20
2.9841
  42
1
  0
VERTEX
  8
Element
  10
1.5975
  20
2.9841
  42
1
  0
SEQEND
  0
POLYLINE
  8
Element
  6
CONTINUOUS
  66
1
  70
0
  40
0.0049
  41
0.0049
  0
VERTEX
  8
Element
  10
1.6225
  20
3.0341
  42
1
  0
VERTEX
  8
Element
  10
1.6275
  20
3.0341
  42
1
  0
VERTEX
  8
Element
  10
1.6225
  20
3.0341
  42
1
  0
SEQEND
  0
POLYLINE
  8
Element
  6
CONTINUOUS
  66
1
  70
0
  40
0.0098
  41
0.0098
  0
VERTEX
  8
Element
  10
1.875
  20
2.1341
  42
0
  0
VERTEX
  8
Element
  10
1.9
  20
2.1841
  42
0
  0
SEQEND
  0
POLYLINE
  8
Element
  6
CONTINUOUS
  66
1
  70
0
  40
0.0049
  41
0.0049
  0
VERTEX
  8
Element
  10
1.8725
  20
2.1341
  42
1
  0
VERTEX
  8
Element
  10
1.8775
  20
2.1341
  42
1
  0
VERTEX
  8
Element
  10
1.8725
  20
2.1341
  42
1
  0
SEQEND
  0
POLYLINE
  8
Element
  6
CONTINUOUS
  66
1
  70
0
  40
0.0049
  41
0.0049
  0
VERTEX
  8
Element
  10
1.8975
  20
2.1841
  42
1
  0
VERTEX
  8
Element
  10
1.9025
  20
2.1841
  42
1
  0
VERTEX
  8
Element
  10
1.8975
  20
2.1841
  42
1
  0
SEQEND
  0
POLYLINE
  8
Element
  6
CONTINUOUS
  66
1
  70
0
  40
0.0098
  41
0.0098
  0
VERTEX
  8
Element
  10
1.825
  20
2.2341
  42
0
  0
VERTEX
  8
Element
  10
1.875
  20
2.1341
  42
0
  0
SEQEND
  0
POLYLINE
  8
Element
  6
CONTINUOUS
  66
1
  70
0
  40
0.0049
  41
0.0049
  0
VERTEX
  8
Element
  10
1.8225
  20
2.2341
  42
1
  0
VERTEX
  8
Element
  10
1.8275
  20
2.2341
  42
1
  0
VERTEX
  8
Element
  10
1.8225
  20
2.2341
  42
1
  0
SEQEND
  0
POLYLINE
  8
Element
  6
CONTINUOUS
  66
1
  70
0
  40
0.0049
  41
0.0049
  0
VERTEX
  8
Element
  10
1.8725
  20
2.1341
  42
1
  0
VERTEX
  8
Element
  10
1.8775
  20
2.1341
  42
1
  0
VERTEX
  8
Element
  10
1.8725
  20
2.1341
  42
1
  0
SEQEND
  0
POLYLINE
  8
Element
  6
CONTINUOUS
  66
1
  70
0
  40
0.0098
  41
0.0098
  0
VERTEX
  8
Element
  10
1.775
  20
2.1341
  42
0
  0
VERTEX
  8
Element
  10
1.825
  20
2.2341
  42
0
  0
SEQEND
  0
POLYLINE
  8
Element
  6
CONTINUOUS
  66
1
  70
0
  40
0.0049
  41
0.0049
  0
VERTEX
  8
Element
  10
1.7725
  20
2.1341
  42
1
  0
VERTEX
  8
Element
  10
1.7775
  20
2.1341
  42
1
  0
VERTEX
  8
Element
  10
1.7725
  20
2.1341
  42
1
  0
SEQEND
  0
POLYLINE
  8
Element
  6
CONTINUOUS
  66
1
  70
0
  40
0.0049
  41
0.0049
  0
VERTEX
  8
Element
  10
1.8225
  20
2.2341
  42
1
  0
VERTEX
  8
Element
  10
1.8275
  20
2.2341
  42
1
  0
VERTEX
  8
Element
  10
1.8225
  20
2.2341
  42
1
  0
SEQEND
  0
POLYLINE
  8
Element
  6
CONTINUOUS
  66
1
  70
0
  40
0.0098
  41
0.0098
  0
VERTEX
  8
Element
  10
1.725
  20
2.2341
  42
0
  0
VERTEX
  8
Element
  10
1.775
  20
2.1341
  42
0
  0
SEQEND
  0
POLYLINE
  8
Element
  6
CONTINUOUS
  66
1
  70
0
  40
0.0049
  41
0.0049
  0
VERTEX
  8
Element
  10
1.7225
  20
2.2341
  42
1
  0
VERTEX
  8
Element
  10
1.7275
  20
2.2341
  42
1
  0
VERTEX
  8
Element
  10
1.7225
  20
2.2341
  42
1
  0
SEQEND
  0
POLYLINE
  8
Element
  6
CONTINUOUS
  66
1
  70
0
  40
0.0049
  41
0.0049
  0
VERTEX
  8
Element
  10
1.7725
  20
2.1341
  42
1
  0
VERTEX
  8
Element
  10
1.7775
  20
2.1341
  42
1
  0
VERTEX
  8
Element
  10
1.7725
  20
2.1341
  42
1
  0
SEQEND
  0
POLYLINE
  8
Element
  6
CONTINUOUS
  66
1
  70
0
  40
0.0098
  41
0.0098
  0
VERTEX
  8
Element
  10
1.675
  20
2.1341
  42
0
  0
VERTEX
  8
Element
  10
1.725
  20
2.2341
  42
0
  0
SEQEND
  0
POLYLINE
  8
Element
  6
CONTINUOUS
  66
1
  70
0
  40
0.0049
  41
0.0049
  0
VERTEX
  8
Element
  10
1.6725
  20
2.1341
  42
1
  0
VERTEX
  8
Element
  10
1.6775
  20
2.1341
  42
1
  0
VERTEX
  8
Element
  10
1.6725
  20
2.1341
  42
1
  0
SEQEND
  0
POLYLINE
  8
Element
  6
CONTINUOUS
  66
1
  70
0
  40
0.0049
  41
0.0049
  0
VERTEX
  8
Element
  10
1.7225
  20
2.2341
  42
1
  0
VERTEX
  8
Element
  10
1.7275
  20
2.2341
  42
1
  0
VERTEX
  8
Element
  10
1.7225
  20
2.2341
  42
1
  0
SEQEND
  0
POLYLINE
  8
Element
  6
CONTINUOUS
  66
1
  70
0
  40
0.0098
  41
0.0098
  0
VERTEX
  8
Element
  10
1.625
  20
2.2341
  42
0
  0
VERTEX
  8
Element
  10
1.675
  20
2.1341
  42
0
  0
SEQEND
  0
POLYLINE
  8
Element
  6
CONTINUOUS
  66
1
  70
0
  40
0.0049
  41
0.0049
  0
VERTEX
  8
Element
  10
1.6225
  20
2.2341
  42
1
  0
VERTEX
  8
Element
  10
1.6275
  20
2.2341
  42
1
  0
VERTEX
  8
Element
  10
1.6225
  20
2.2341
  42
1
  0
SEQEND
  0
POLYLINE
  8
Element
  6
CONTINUOUS
  66
1
  70
0
  40
0.0049
  41
0.0049
  0
VERTEX
  8
Element
  10
1.6725
  20
2.1341
  42
1
  0
VERTEX
  8
Element
  10
1.6775
  20
2.1341
  42
1
  0
VERTEX
  8
Element
  10
1.6725
  20
2.1341
  42
1
  0
SEQEND
  0
POLYLINE
  8
Element
  6
CONTINUOUS
  66
1
  70
0
  40
0.0098
  41
0.0098
  0
VERTEX
  8
Element
  10
1.6
  20
2.1841
  42
0
  0
VERTEX
  8
Element
  10
1.625
  20
2.2341
  42
0
  0
SEQEND
  0
POLYLINE
  8
Element
  6
CONTINUOUS
  66
1
  70
0
  40
0.0049
  41
0.0049
  0
VERTEX
  8
Element
  10
1.5975
  20
2.1841
  42
1
  0
VERTEX
  8
Element
  10
1.6025
  20
2.1841
  42
1
  0
VERTEX
  8
Element
  10
1.5975
  20
2.1841
  42
1
  0
SEQEND
  0
POLYLINE
  8
Element
  6
CONTINUOUS
  66
1
  70
0
  40
0.0049
  41
0.0049
  0
VERTEX
  8
Element
  10
1.6225
  20
2.2341
  42
1
  0
VERTEX
  8
Element
  10
1.6275
  20
2.2341
  42
1
  0
VERTEX
  8
Element
  10
1.6225
  20
2.2341
  42
1
  0
SEQEND
  0
POLYLINE
  8
Element
  6
CONTINUOUS
  66
1
  70
0
  40
0.0098
  41
0.0098
  0
VERTEX
  8
Element
  10
1.85
  20
1.7341
  42
0
  0
VERTEX
  8
Element
  10
1.875
  20
1.7841
  42
0
  0
SEQEND
  0
POLYLINE
  8
Element
  6
CONTINUOUS
  66
1
  70
0
  40
0.0049
  41
0.0049
  0
VERTEX
  8
Element
  10
1.8475
  20
1.7341
  42
1
  0
VERTEX
  8
Element
  10
1.8525
  20
1.7341
  42
1
  0
VERTEX
  8
Element
  10
1.8475
  20
1.7341
  42
1
  0
SEQEND
  0
POLYLINE
  8
Element
  6
CONTINUOUS
  66
1
  70
0
  40
0.0049
  41
0.0049
  0
VERTEX
  8
Element
  10
1.8725
  20
1.7841
  42
1
  0
VERTEX
  8
Element
  10
1.8775
  20
1.7841
  42
1
  0
VERTEX
  8
Element
  10
1.8725
  20
1.7841
  42
1
  0
SEQEND
  0
POLYLINE
  8
Element
  6
CONTINUOUS
  66
1
  70
0
  40
0.0098
  41
0.0098
  0
VERTEX
  8
Element
  10
1.8
  20
1.8341
  42
0
  0
VERTEX
  8
Element
  10
1.85
  20
1.7341
  42
0
  0
SEQEND
  0
POLYLINE
  8
Element
  6
CONTINUOUS
  66
1
  70
0
  40
0.0049
  41
0.0049
  0
VERTEX
  8
Element
  10
1.7975
  20
1.8341
  42
1
  0
VERTEX
  8
Element
  10
1.8025
  20
1.8341
  42
1
  0
VERTEX
  8
Element
  10
1.7975
  20
1.8341
  42
1
  0
SEQEND
  0
POLYLINE
  8
Element
  6
CONTINUOUS
  66
1
  70
0
  40
0.0049
  41
0.0049
  0
VERTEX
  8
Element
  10
1.8475
  20
1.7341
  42
1
  0
VERTEX
  8
Element
  10
1.8525
  20
1.7341
  42
1
  0
VERTEX
  8
Element
  10
1.8475
  20
1.7341
  42
1
  0
SEQEND
  0
POLYLINE
  8
Element
  6
CONTINUOUS
  66
1
  70
0
  40
0.0098
  41
0.0098
  0
VERTEX
  8
Element
  10
1.75
  20
1.7341
  42
0
  0
VERTEX
  8
Element
  10
1.8
  20
1.8341
  42
0
  0
SEQEND
  0
POLYLINE
  8
Element
  6
CONTINUOUS
  66
1
  70
0
  40
0.0049
  41
0.0049
  0
VERTEX
  8
Element
  10
1.7475
  20
1.7341
  42
1
  0
VERTEX
  8
Element
  10
1.7525
  20
1.7341
  42
1
  0
VERTEX
  8
Element
  10
1.7475
  20
1.7341
  42
1
  0
SEQEND
  0
POLYLINE
  8
Element
  6
CONTINUOUS
  66
1
  70
0
  40
0.0049
  41
0.0049
  0
VERTEX
  8
Element
  10
1.7975
  20
1.8341
  42
1
  0
VERTEX
  8
Element
  10
1.8025
  20
1.8341
  42
1
  0
VERTEX
  8
Element
  10
1.7975
  20
1.8341
  42
1
  0
SEQEND
  0
POLYLINE
  8
Element
  6
CONTINUOUS
  66
1
  70
0
  40
0.0098
  41
0.0098
  0
VERTEX
  8
Element
  10
1.7
  20
1.8341
  42
0
  0
VERTEX
  8
Element
  10
1.75
  20
1.7341
  42
0
  0
SEQEND
  0
POLYLINE
  8
Element
  6
CONTINUOUS
  66
1
  70
0
  40
0.0049
  41
0.0049
  0
VERTEX
  8
Element
  10
1.6975
  20
1.8341
  42
1
  0
VERTEX
  8
Element
  10
1.7025
  20
1.8341
  42
1
  0
VERTEX
  8
Element
  10
1.6975
  20
1.8341
  42
1
  0
SEQEND
  0
POLYLINE
  8
Element
  6
CONTINUOUS
  66
1
  70
0
  40
0.0049
  41
0.0049
  0
VERTEX
  8
Element
  10
1.7475
  20
1.7341
  42
1
  0
VERTEX
  8
Element
  10
1.7525
  20
1.7341
  42
1
  0
VERTEX
  8
Element
  10
1.7475
  20
1.7341
  42
1
  0
SEQEND
  0
POLYLINE
  8
Element
  6
CONTINUOUS
  66
1
  70
0
  40
0.0098
  41
0.0098
  0
VERTEX
  8
Element
  10
1.65
  20
1.7341
  42
0
  0
VERTEX
  8
Element
  10
1.7
  20
1.8341
  42
0
  0
SEQEND
  0
POLYLINE
  8
Element
  6
CONTINUOUS
  66
1
  70
0
  40
0.0049
  41
0.0049
  0
VERTEX
  8
Element
  10
1.6475
  20
1.7341
  42
1
  0
VERTEX
  8
Element
  10
1.6525
  20
1.7341
  42
1
  0
VERTEX
  8
Element
  10
1.6475
  20
1.7341
  42
1
  0
SEQEND
  0
POLYLINE
  8
Element
  6
CONTINUOUS
  66
1
  70
0
  40
0.0049
  41
0.0049
  0
VERTEX
  8
Element
  10
1.6975
  20
1.8341
  42
1
  0
VERTEX
  8
Element
  10
1.7025
  20
1.8341
  42
1
  0
VERTEX
  8
Element
  10
1.6975
  20
1.8341
  42
1
  0
SEQEND
  0
POLYLINE
  8
Element
  6
CONTINUOUS
  66
1
  70
0
  40
0.0098
  41
0.0098
  0
VERTEX
  8
Element
  10
1.6
  20
1.8341
  42
0
  0
VERTEX
  8
Element
  10
1.65
  20
1.7341
  42
0
  0
SEQEND
  0
POLYLINE
  8
Element
  6
CONTINUOUS
  66
1
  70
0
  40
0.0049
  41
0.0049
  0
VERTEX
  8
Element
  10
1.5975
  20
1.8341
  42
1
  0
VERTEX
  8
Element
  10
1.6025
  20
1.8341
  42
1
  0
VERTEX
  8
Element
  10
1.5975
  20
1.8341
  42
1
  0
SEQEND
  0
POLYLINE
  8
Element
  6
CONTINUOUS
  66
1
  70
0
  40
0.0049
  41
0.0049
  0
VERTEX
  8
Element
  10
1.6475
  20
1.7341
  42
1
  0
VERTEX
  8
Element
  10
1.6525
  20
1.7341
  42
1
  0
VERTEX
  8
Element
  10
1.6475
  20
1.7341
  42
1
  0
SEQEND
  0
POLYLINE
  8
Element
  6
CONTINUOUS
  66
1
  70
0
  40
0.0098
  41
0.0098
  0
VERTEX
  8
Element
  10
1.575
  20
1.7841
  42
0
  0
VERTEX
  8
Element
  10
1.6
  20
1.8341
  42
0
  0
SEQEND
  0
POLYLINE
  8
Element
  6
CONTINUOUS
  66
1
  70
0
  40
0.0049
  41
0.0049
  0
VERTEX
  8
Element
  10
1.5725
  20
1.7841
  42
1
  0
VERTEX
  8
Element
  10
1.5775
  20
1.7841
  42
1
  0
VERTEX
  8
Element
  10
1.5725
  20
1.7841
  42
1
  0
SEQEND
  0
POLYLINE
  8
Element
  6
CONTINUOUS
  66
1
  70
0
  40
0.0049
  41
0.0049
  0
VERTEX
  8
Element
  10
1.5975
  20
1.8341
  42
1
  0
VERTEX
  8
Element
  10
1.6025
  20
1.8341
  42
1
  0
VERTEX
  8
Element
  10
1.5975
  20
1.8341
  42
1
  0
SEQEND
  0
POLYLINE
  8
Element
  6
CONTINUOUS
  66
1
  70
0
  40
0.0098
  41
0.0098
  0
VERTEX
  8
Element
  10
1.9
  20
0.8841
  42
0
  0
VERTEX
  8
Element
  10
1.925
  20
0.9341
  42
0
  0
SEQEND
  0
POLYLINE
  8
Element
  6
CONTINUOUS
  66
1
  70
0
  40
0.0049
  41
0.0049
  0
VERTEX
  8
Element
  10
1.8975
  20
0.8841
  42
1
  0
VERTEX
  8
Element
  10
1.9025
  20
0.8841
  42
1
  0
VERTEX
  8
Element
  10
1.8975
  20
0.8841
  42
1
  0
SEQEND
  0
POLYLINE
  8
Element
  6
CONTINUOUS
  66
1
  70
0
  40
0.0049
  41
0.0049
  0
VERTEX
  8
Element
  10
1.9225
  20
0.9341
  42
1
  0
VERTEX
  8
Element
  10
1.9275
  20
0.9341
  42
1
  0
VERTEX
  8
Element
  10
1.9225
  20
0.9341
  42
1
  0
SEQEND
  0
POLYLINE
  8
Element
  6
CONTINUOUS
  66
1
  70
0
  40
0.0098
  41
0.0098
  0
VERTEX
  8
Element
  10
1.85
  20
0.9841
  42
0
  0
VERTEX
  8
Element
  10
1.9
  20
0.8841
  42
0
  0
SEQEND
  0
POLYLINE
  8
Element
  6
CONTINUOUS
  66
1
  70
0
  40
0.0049
  41
0.0049
  0
VERTEX
  8
Element
  10
1.8475
  20
0.9841
  42
1
  0
VERTEX
  8
Element
  10
1.8525
  20
0.9841
  42
1
  0
VERTEX
  8
Element
  10
1.8475
  20
0.9841
  42
1
  0
SEQEND
  0
POLYLINE
  8
Element
  6
CONTINUOUS
  66
1
  70
0
  40
0.0049
  41
0.0049
  0
VERTEX
  8
Element
  10
1.8975
  20
0.8841
  42
1
  0
VERTEX
  8
Element
  10
1.9025
  20
0.8841
  42
1
  0
VERTEX
  8
Element
  10
1.8975
  20
0.8841
  42
1
  0
SEQEND
  0
POLYLINE
  8
Element
  6
CONTINUOUS
  66
1
  70
0
  40
0.0098
  41
0.0098
  0
VERTEX
  8
Element
  10
1.8
  20
0.8841
  42
0
  0
VERTEX
  8
Element
  10
1.85
  20
0.9841
  42
0
  0
SEQEND
  0
POLYLINE
  8
Element
  6
CONTINUOUS
  66
1
  70
0
  40
0.0049
  41
0.0049
  0
VERTEX
  8
Element
  10
1.7975
  20
0.8841
  42
1
  0
VERTEX
  8
Element
  10
1.8025
  20
0.8841
  42
1
  0
VERTEX
  8
Element
  10
1.7975
  20
0.8841
  42
1
  0
SEQEND
  0
POLYLINE
  8
Element
  6
CONTINUOUS
  66
1
  70
0
  40
0.0049
  41
0.0049
  0
VERTEX
  8
Element
  10
1.8475
  20
0.9841
  42
1
  0
VERTEX
  8
Element
  10
1.8525
  20
0.9841
  42
1
  0
VERTEX
  8
Element
  10
1.8475
  20
0.9841
  42
1
  0
SEQEND
  0
POLYLINE
  8
Element
  6
CONTINUOUS
  66
1
  70
0
  40
0.0098
  41
0.0098
  0
VERTEX
  8
Element
  10
1.75
  20
0.9841
  42
0
  0
VERTEX
  8
Element
  10
1.8
  20
0.8841
  42
0
  0
SEQEND
  0
POLYLINE
  8
Element
  6
CONTINUOUS
  66
1
  70
0
  40
0.0049
  41
0.0049
  0
VERTEX
  8
Element
  10
1.7475
  20
0.9841
  42
1
  0
VERTEX
  8
Element
  10
1.7525
  20
0.9841
  42
1
  0
VERTEX
  8
Element
  10
1.7475
  20
0.9841
  42
1
  0
SEQEND
  0
POLYLINE
  8
Element
  6
CONTINUOUS
  66
1
  70
0
  40
0.0049
  41
0.0049
  0
VERTEX
  8
Element
  10
1.7975
  20
0.8841
  42
1
  0
VERTEX
  8
Element
  10
1.8025
  20
0.8841
  42
1
  0
VERTEX
  8
Element
  10
1.7975
  20
0.8841
  42
1
  0
SEQEND
  0
POLYLINE
  8
Element
  6
CONTINUOUS
  66
1
  70
0
  40
0.0098
  41
0.0098
  0
VERTEX
  8
Element
  10
1.7
  20
0.8841
  42
0
  0
VERTEX
  8
Element
  10
1.75
  20
0.9841
  42
0
  0
SEQEND
  0
POLYLINE
  8
Element
  6
CONTINUOUS
  66
1
  70
0
  40
0.0049
  41
0.0049
  0
VERTEX
  8
Element
  10
1.6975
  20
0.8841
  42
1
  0
VERTEX
  8
Element
  10
1.7025
  20
0.8841
  42
1
  0
VERTEX
  8
Element
  10
1.6975
  20
0.8841
  42
1
  0
SEQEND
  0
POLYLINE
  8
Element
  6
CONTINUOUS
  66
1
  70
0
  40
0.0049
  41
0.0049
  0
VERTEX
  8
Element
  10
1.7475
  20
0.9841
  42
1
  0
VERTEX
  8
Element
  10
1.7525
  20
0.9841
  42
1
  0
VERTEX
  8
Element
  10
1.7475
  20
0.9841
  42
1
  0
SEQEND
  0
POLYLINE
  8
Element
  6
CONTINUOUS
  66
1
  70
0
  40
0.0098
  41
0.0098
  0
VERTEX
  8
Element
  10
1.65
  20
0.9841
  42
0
  0
VERTEX
  8
Element
  10
1.7
  20
0.8841
  42
0
  0
SEQEND
  0
POLYLINE
  8
Element
  6
CONTINUOUS
  66
1
  70
0
  40
0.0049
  41
0.0049
  0
VERTEX
  8
Element
  10
1.6475
  20
0.9841
  42
1
  0
VERTEX
  8
Element
  10
1.6525
  20
0.9841
  42
1
  0
VERTEX
  8
Element
  10
1.6475
  20
0.9841
  42
1
  0
SEQEND
  0
POLYLINE
  8
Element
  6
CONTINUOUS
  66
1
  70
0
  40
0.0049
  41
0.0049
  0
VERTEX
  8
Element
  10
1.6975
  20
0.8841
  42
1
  0
VERTEX
  8
Element
  10
1.7025
  20
0.8841
  42
1
  0
VERTEX
  8
Element
  10
1.6975
  20
0.8841
  42
1
  0
SEQEND
  0
POLYLINE
  8
Element
  6
CONTINUOUS
  66
1
  70
0
  40
0.0098
  41
0.0098
  0
VERTEX
  8
Element
  10
1.625
  20
0.9341
  42
0
  0
VERTEX
  8
Element
  10
1.65
  20
0.9841
  42
0
  0
SEQEND
  0
POLYLINE
  8
Element
  6
CONTINUOUS
  66
1
  70
0
  40
0.0049
  41
0.0049
  0
VERTEX
  8
Element
  10
1.6225
  20
0.9341
  42
1
  0
VERTEX
  8
Element
  10
1.6275
  20
0.9341
  42
1
  0
VERTEX
  8
Element
  10
1.6225
  20
0.9341
  42
1
  0
SEQEND
  0
POLYLINE
  8
Element
  6
CONTINUOUS
  66
1
  70
0
  40
0.0049
  41
0.0049
  0
VERTEX
  8
Element
  10
1.6475
  20
0.9841
  42
1
  0
VERTEX
  8
Element
  10
1.6525
  20
0.9841
  42
1
  0
VERTEX
  8
Element
  10
1.6475
  20
0.9841
  42
1
  0
SEQEND
  0
POLYLINE
  8
Element
  6
CONTINUOUS
  66
1
  70
0
  40
0.0098
  41
0.0098
  0
VERTEX
  8
Element
  10
1.9
  20
0.4591
  42
0
  0
VERTEX
  8
Element
  10
1.925
  20
0.5091
  42
0
  0
SEQEND
  0
POLYLINE
  8
Element
  6
CONTINUOUS
  66
1
  70
0
  40
0.0049
  41
0.0049
  0
VERTEX
  8
Element
  10
1.8975
  20
0.4591
  42
1
  0
VERTEX
  8
Element
  10
1.9025
  20
0.4591
  42
1
  0
VERTEX
  8
Element
  10
1.8975
  20
0.4591
  42
1
  0
SEQEND
  0
POLYLINE
  8
Element
  6
CONTINUOUS
  66
1
  70
0
  40
0.0049
  41
0.0049
  0
VERTEX
  8
Element
  10
1.9225
  20
0.5091
  42
1
  0
VERTEX
  8
Element
  10
1.9275
  20
0.5091
  42
1
  0
VERTEX
  8
Element
  10
1.9225
  20
0.5091
  42
1
  0
SEQEND
  0
POLYLINE
  8
Element
  6
CONTINUOUS
  66
1
  70
0
  40
0.0098
  41
0.0098
  0
VERTEX
  8
Element
  10
1.85
  20
0.5591
  42
0
  0
VERTEX
  8
Element
  10
1.9
  20
0.4591
  42
0
  0
SEQEND
  0
POLYLINE
  8
Element
  6
CONTINUOUS
  66
1
  70
0
  40
0.0049
  41
0.0049
  0
VERTEX
  8
Element
  10
1.8475
  20
0.5591
  42
1
  0
VERTEX
  8
Element
  10
1.8525
  20
0.5591
  42
1
  0
VERTEX
  8
Element
  10
1.8475
  20
0.5591
  42
1
  0
SEQEND
  0
POLYLINE
  8
Element
  6
CONTINUOUS
  66
1
  70
0
  40
0.0049
  41
0.0049
  0
VERTEX
  8
Element
  10
1.8975
  20
0.4591
  42
1
  0
VERTEX
  8
Element
  10
1.9025
  20
0.4591
  42
1
  0
VERTEX
  8
Element
  10
1.8975
  20
0.4591
  42
1
  0
SEQEND
  0
POLYLINE
  8
Element
  6
CONTINUOUS
  66
1
  70
0
  40
0.0098
  41
0.0098
  0
VERTEX
  8
Element
  10
1.8
  20
0.4591
  42
0
  0
VERTEX
  8
Element
  10
1.85
  20
0.5591
  42
0
  0
SEQEND
  0
POLYLINE
  8
Element
  6
CONTINUOUS
  66
1
  70
0
  40
0.0049
  41
0.0049
  0
VERTEX
  8
Element
  10
1.7975
  20
0.4591
  42
1
  0
VERTEX
  8
Element
  10
1.8025
  20
0.4591
  42
1
  0
VERTEX
  8
Element
  10
1.7975
  20
0.4591
  42
1
  0
SEQEND
  0
POLYLINE
  8
Element
  6
CONTINUOUS
  66
1
  70
0
  40
0.0049
  41
0.0049
  0
VERTEX
  8
Element
  10
1.8475
  20
0.5591
  42
1
  0
VERTEX
  8
Element
  10
1.8525
  20
0.5591
  42
1
  0
VERTEX
  8
Element
  10
1.8475
  20
0.5591
  42
1
  0
SEQEND
  0
POLYLINE
  8
Element
  6
CONTINUOUS
  66
1
  70
0
  40
0.0098
  41
0.0098
  0
VERTEX
  8
Element
  10
1.75
  20
0.5591
  42
0
  0
VERTEX
  8
Element
  10
1.8
  20
0.4591
  42
0
  0
SEQEND
  0
POLYLINE
  8
Element
  6
CONTINUOUS
  66
1
  70
0
  40
0.0049
  41
0.0049
  0
VERTEX
  8
Element
  10
1.7475
  20
0.5591
  42
1
  0
VERTEX
  8
Element
  10
1.7525
  20
0.5591
  42
1
  0
VERTEX
  8
Element
  10
1.7475
  20
0.5591
  42
1
  0
SEQEND
  0
POLYLINE
  8
Element
  6
CONTINUOUS
  66
1
  70
0
  40
0.0049
  41
0.0049
  0
VERTEX
  8
Element
  10
1.7975
  20
0.4591
  42
1
  0
VERTEX
  8
Element
  10
1.8025
  20
0.4591
  42
1
  0
VERTEX
  8
Element
  10
1.7975
  20
0.4591
  42
1
  0
SEQEND
  0
POLYLINE
  8
Element
  6
CONTINUOUS
  66
1
  70
0
  40
0.0098
  41
0.0098
  0
VERTEX
  8
Element
  10
1.7
  20
0.4591
  42
0
  0
VERTEX
  8
Element
  10
1.75
  20
0.5591
  42
0
  0
SEQEND
  0
POLYLINE
  8
Element
  6
CONTINUOUS
  66
1
  70
0
  40
0.0049
  41
0.0049
  0
VERTEX
  8
Element
  10
1.6975
  20
0.4591
  42
1
  0
VERTEX
  8
Element
  10
1.7025
  20
0.4591
  42
1
  0
VERTEX
  8
Element
  10
1.6975
  20
0.4591
  42
1
  0
SEQEND
  0
POLYLINE
  8
Element
  6
CONTINUOUS
  66
1
  70
0
  40
0.0049
  41
0.0049
  0
VERTEX
  8
Element
  10
1.7475
  20
0.5591
  42
1
  0
VERTEX
  8
Element
  10
1.7525
  20
0.5591
  42
1
  0
VERTEX
  8
Element
  10
1.7475
  20
0.5591
  42
1
  0
SEQEND
  0
POLYLINE
  8
Element
  6
CONTINUOUS
  66
1
  70
0
  40
0.0098
  41
0.0098
  0
VERTEX
  8
Element
  10
1.65
  20
0.5591
  42
0
  0
VERTEX
  8
Element
  10
1.7
  20
0.4591
  42
0
  0
SEQEND
  0
POLYLINE
  8
Element
  6
CONTINUOUS
  66
1
  70
0
  40
0.0049
  41
0.0049
  0
VERTEX
  8
Element
  10
1.6475
  20
0.5591
  42
1
  0
VERTEX
  8
Element
  10
1.6525
  20
0.5591
  42
1
  0
VERTEX
  8
Element
  10
1.6475
  20
0.5591
  42
1
  0
SEQEND
  0
POLYLINE
  8
Element
  6
CONTINUOUS
  66
1
  70
0
  40
0.0049
  41
0.0049
  0
VERTEX
  8
Element
  10
1.6975
  20
0.4591
  42
1
  0
VERTEX
  8
Element
  10
1.7025
  20
0.4591
  42
1
  0
VERTEX
  8
Element
  10
1.6975
  20
0.4591
  42
1
  0
SEQEND
  0
POLYLINE
  8
Element
  6
CONTINUOUS
  66
1
  70
0
  40
0.0098
  41
0.0098
  0
VERTEX
  8
Element
  10
1.625
  20
0.5091
  42
0
  0
VERTEX
  8
Element
  10
1.65
  20
0.5591
  42
0
  0
SEQEND
  0
POLYLINE
  8
Element
  6
CONTINUOUS
  66
1
  70
0
  40
0.0049
  41
0.0049
  0
VERTEX
  8
Element
  10
1.6225
  20
0.5091
  42
1
  0
VERTEX
  8
Element
  10
1.6275
  20
0.5091
  42
1
  0
VERTEX
  8
Element
  10
1.6225
  20
0.5091
  42
1
  0
SEQEND
  0
POLYLINE
  8
Element
  6
CONTINUOUS
  66
1
  70
0
  40
0.0049
  41
0.0049
  0
VERTEX
  8
Element
  10
1.6475
  20
0.5591
  42
1
  0
VERTEX
  8
Element
  10
1.6525
  20
0.5591
  42
1
  0
VERTEX
  8
Element
  10
1.6475
  20
0.5591
  42
1
  0
SEQEND
  0
POLYLINE
  8
Element
  6
CONTINUOUS
  66
1
  70
0
  40
0.0098
  41
0.0098
  0
VERTEX
  8
Element
  10
4.775
  20
4.5591
  42
0
  0
VERTEX
  8
Element
  10
4.725
  20
4.5091
  42
0
  0
SEQEND
  0
POLYLINE
  8
Element
  6
CONTINUOUS
  66
1
  70
0
  40
0.0049
  41
0.0049
  0
VERTEX
  8
Element
  10
4.7725
  20
4.5591
  42
1
  0
VERTEX
  8
Element
  10
4.7775
  20
4.5591
  42
1
  0
VERTEX
  8
Element
  10
4.7725
  20
4.5591
  42
1
  0
SEQEND
  0
POLYLINE
  8
Element
  6
CONTINUOUS
  66
1
  70
0
  40
0.0049
  41
0.0049
  0
VERTEX
  8
Element
  10
4.7225
  20
4.5091
  42
1
  0
VERTEX
  8
Element
  10
4.7275
  20
4.5091
  42
1
  0
VERTEX
  8
Element
  10
4.7225
  20
4.5091
  42
1
  0
SEQEND
  0
POLYLINE
  8
Element
  6
CONTINUOUS
  66
1
  70
0
  40
0.0098
  41
0.0098
  0
VERTEX
  8
Element
  10
4.775
  20
4.5591
  42
0
  0
VERTEX
  8
Element
  10
4.725
  20
4.6091
  42
0
  0
SEQEND
  0
POLYLINE
  8
Element
  6
CONTINUOUS
  66
1
  70
0
  40
0.0049
  41
0.0049
  0
VERTEX
  8
Element
  10
4.7725
  20
4.5591
  42
1
  0
VERTEX
  8
Element
  10
4.7775
  20
4.5591
  42
1
  0
VERTEX
  8
Element
  10
4.7725
  20
4.5591
  42
1
  0
SEQEND
  0
POLYLINE
  8
Element
  6
CONTINUOUS
  66
1
  70
0
  40
0.0049
  41
0.0049
  0
VERTEX
  8
Element
  10
4.7225
  20
4.6091
  42
1
  0
VERTEX
  8
Element
  10
4.7275
  20
4.6091
  42
1
  0
VERTEX
  8
Element
  10
4.7225
  20
4.6091
  42
1
  0
SEQEND
  0
POLYLINE
  8
Element
  6
CONTINUOUS
  66
1
  70
0
  40
0.0098
  41
0.0098
  0
VERTEX
  8
Element
  10
4.775
  20
4.5591
  42
0
  0
VERTEX
  8
Element
  10
4.55
  20
4.5591
  42
0
  0
SEQEND
  0
POLYLINE
  8
Element
  6
CONTINUOUS
  66
1
  70
0
  40
0.0049
  41
0.0049
  0
VERTEX
  8
Element
  10
4.7725
  20
4.5591
  42
1
  0
VERTEX
  8
Element
  10
4.7775
  20
4.5591
  42
1
  0
VERTEX
  8
Element
  10
4.7725
  20
4.5591
  42
1
  0
SEQEND
  0
POLYLINE
  8
Element
  6
CONTINUOUS
  66
1
  70
0
  40
0.0049
  41
0.0049
  0
VERTEX
  8
Element
  10
4.5475
  20
4.5591
  42
1
  0
VERTEX
  8
Element
  10
4.5525
  20
4.5591
  42
1
  0
VERTEX
  8
Element
  10
4.5475
  20
4.5591
  42
1
  0
SEQEND
  0
POLYLINE
  8
Element
  6
CONTINUOUS
  66
1
  70
0
  40
0.0098
  41
0.0098
  0
VERTEX
  8
Element
  10
4.95
  20
4.6091
  42
0
  0
VERTEX
  8
Element
  10
4.95
  20
4.5091
  42
0
  0
SEQEND
  0
POLYLINE
  8
Element
  6
CONTINUOUS
  66
1
  70
0
  40
0.0049
  41
0.0049
  0
VERTEX
  8
Element
  10
4.9475
  20
4.6091
  42
1
  0
VERTEX
  8
Element
  10
4.9525
  20
4.6091
  42
1
  0
VERTEX
  8
Element
  10
4.9475
  20
4.6091
  42
1
  0
SEQEND
  0
POLYLINE
  8
Element
  6
CONTINUOUS
  66
1
  70
0
  40
0.0049
  41
0.0049
  0
VERTEX
  8
Element
  10
4.9475
  20
4.5091
  42
1
  0
VERTEX
  8
Element
  10
4.9525
  20
4.5091
  42
1
  0
VERTEX
  8
Element
  10
4.9475
  20
4.5091
  42
1
  0
SEQEND
  0
POLYLINE
  8
Element
  6
CONTINUOUS
  66
1
  70
0
  40
0.0098
  41
0.0098
  0
VERTEX
  8
Element
  10
4.95
  20
4.5091
  42
0
  0
VERTEX
  8
Element
  10
4.55
  20
4.5091
  42
0
  0
SEQEND
  0
POLYLINE
  8
Element
  6
CONTINUOUS
  66
1
  70
0
  40
0.0049
  41
0.0049
  0
VERTEX
  8
Element
  10
4.9475
  20
4.5091
  42
1
  0
VERTEX
  8
Element
  10
4.9525
  20
4.5091
  42
1
  0
VERTEX
  8
Element
  10
4.9475
  20
4.5091
  42
1
  0
SEQEND
  0
POLYLINE
  8
Element
  6
CONTINUOUS
  66
1
  70
0
  40
0.0049
  41
0.0049
  0
VERTEX
  8
Element
  10
4.5475
  20
4.5091
  42
1
  0
VERTEX
  8
Element
  10
4.5525
  20
4.5091
  42
1
  0
VERTEX
  8
Element
  10
4.5475
  20
4.5091
  42
1
  0
SEQEND
  0
POLYLINE
  8
Element
  6
CONTINUOUS
  66
1
  70
0
  40
0.0098
  41
0.0098
  0
VERTEX
  8
Element
  10
4.55
  20
4.5091
  42
0
  0
VERTEX
  8
Element
  10
4.55
  20
4.6091
  42
0
  0
SEQEND
  0
POLYLINE
  8
Element
  6
CONTINUOUS
  66
1
  70
0
  40
0.0049
  41
0.0049
  0
VERTEX
  8
Element
  10
4.5475
  20
4.5091
  42
1
  0
VERTEX
  8
Element
  10
4.5525
  20
4.5091
  42
1
  0
VERTEX
  8
Element
  10
4.5475
  20
4.5091
  42
1
  0
SEQEND
  0
POLYLINE
  8
Element
  6
CONTINUOUS
  66
1
  70
0
  40
0.0049
  41
0.0049
  0
VERTEX
  8
Element
  10
4.5475
  20
4.6091
  42
1
  0
VERTEX
  8
Element
  10
4.5525
  20
4.6091
  42
1
  0
VERTEX
  8
Element
  10
4.5475
  20
4.6091
  42
1
  0
SEQEND
  0
POLYLINE
  8
Element
  6
CONTINUOUS
  66
1
  70
0
  40
0.0098
  41
0.0098
  0
VERTEX
  8
Element
  10
4.55
  20
4.6091
  42
0
  0
VERTEX
  8
Element
  10
4.95
  20
4.6091
  42
0
  0
SEQEND
  0
POLYLINE
  8
Element
  6
CONTINUOUS
  66
1
  70
0
  40
0.0049
  41
0.0049
  0
VERTEX
  8
Element
  10
4.5475
  20
4.6091
  42
1
  0
VERTEX
  8
Element
  10
4.5525
  20
4.6091
  42
1
  0
VERTEX
  8
Element
  10
4.5475
  20
4.6091
  42
1
  0
SEQEND
  0
POLYLINE
  8
Element
  6
CONTINUOUS
  66
1
  70
0
  40
0.0049
  41
0.0049
  0
VERTEX
  8
Element
  10
4.9475
  20
4.6091
  42
1
  0
VERTEX
  8
Element
  10
4.9525
  20
4.6091
  42
1
  0
VERTEX
  8
Element
  10
4.9475
  20
4.6091
  42
1
  0
SEQEND
  0
POLYLINE
  8
Element
  6
CONTINUOUS
  66
1
  70
0
  40
0.0098
  41
0.0098
  0
VERTEX
  8
Element
  10
4.8
  20
4.9091
  42
0
  0
VERTEX
  8
Element
  10
4.75
  20
4.8591
  42
0
  0
SEQEND
  0
POLYLINE
  8
Element
  6
CONTINUOUS
  66
1
  70
0
  40
0.0049
  41
0.0049
  0
VERTEX
  8
Element
  10
4.7975
  20
4.9091
  42
1
  0
VERTEX
  8
Element
  10
4.8025
  20
4.9091
  42
1
  0
VERTEX
  8
Element
  10
4.7975
  20
4.9091
  42
1
  0
SEQEND
  0
POLYLINE
  8
Element
  6
CONTINUOUS
  66
1
  70
0
  40
0.0049
  41
0.0049
  0
VERTEX
  8
Element
  10
4.7475
  20
4.8591
  42
1
  0
VERTEX
  8
Element
  10
4.7525
  20
4.8591
  42
1
  0
VERTEX
  8
Element
  10
4.7475
  20
4.8591
  42
1
  0
SEQEND
  0
POLYLINE
  8
Element
  6
CONTINUOUS
  66
1
  70
0
  40
0.0098
  41
0.0098
  0
VERTEX
  8
Element
  10
4.8
  20
4.9091
  42
0
  0
VERTEX
  8
Element
  10
4.75
  20
4.9591
  42
0
  0
SEQEND
  0
POLYLINE
  8
Element
  6
CONTINUOUS
  66
1
  70
0
  40
0.0049
  41
0.0049
  0
VERTEX
  8
Element
  10
4.7975
  20
4.9091
  42
1
  0
VERTEX
  8
Element
  10
4.8025
  20
4.9091
  42
1
  0
VERTEX
  8
Element
  10
4.7975
  20
4.9091
  42
1
  0
SEQEND
  0
POLYLINE
  8
Element
  6
CONTINUOUS
  66
1
  70
0
  40
0.0049
  41
0.0049
  0
VERTEX
  8
Element
  10
4.7475
  20
4.9591
  42
1
  0
VERTEX
  8
Element
  10
4.7525
  20
4.9591
  42
1
  0
VERTEX
  8
Element
  10
4.7475
  20
4.9591
  42
1
  0
SEQEND
  0
POLYLINE
  8
Element
  6
CONTINUOUS
  66
1
  70
0
  40
0.0098
  41
0.0098
  0
VERTEX
  8
Element
  10
4.8
  20
4.9091
  42
0
  0
VERTEX
  8
Element
  10
4.575
  20
4.9091
  42
0
  0
SEQEND
  0
POLYLINE
  8
Element
  6
CONTINUOUS
  66
1
  70
0
  40
0.0049
  41
0.0049
  0
VERTEX
  8
Element
  10
4.7975
  20
4.9091
  42
1
  0
VERTEX
  8
Element
  10
4.8025
  20
4.9091
  42
1
  0
VERTEX
  8
Element
  10
4.7975
  20
4.9091
  42
1
  0
SEQEND
  0
POLYLINE
  8
Element
  6
CONTINUOUS
  66
1
  70
0
  40
0.0049
  41
0.0049
  0
VERTEX
  8
Element
  10
4.5725
  20
4.9091
  42
1
  0
VERTEX
  8
Element
  10
4.5775
  20
4.9091
  42
1
  0
VERTEX
  8
Element
  10
4.5725
  20
4.9091
  42
1
  0
SEQEND
  0
POLYLINE
  8
Element
  6
CONTINUOUS
  66
1
  70
0
  40
0.0098
  41
0.0098
  0
VERTEX
  8
Element
  10
4.975
  20
4.9591
  42
0
  0
VERTEX
  8
Element
  10
4.975
  20
4.8591
  42
0
  0
SEQEND
  0
POLYLINE
  8
Element
  6
CONTINUOUS
  66
1
  70
0
  40
0.0049
  41
0.0049
  0
VERTEX
  8
Element
  10
4.9725
  20
4.9591
  42
1
  0
VERTEX
  8
Element
  10
4.9775
  20
4.9591
  42
1
  0
VERTEX
  8
Element
  10
4.9725
  20
4.9591
  42
1
  0
SEQEND
  0
POLYLINE
  8
Element
  6
CONTINUOUS
  66
1
  70
0
  40
0.0049
  41
0.0049
  0
VERTEX
  8
Element
  10
4.9725
  20
4.8591
  42
1
  0
VERTEX
  8
Element
  10
4.9775
  20
4.8591
  42
1
  0
VERTEX
  8
Element
  10
4.9725
  20
4.8591
  42
1
  0
SEQEND
  0
POLYLINE
  8
Element
  6
CONTINUOUS
  66
1
  70
0
  40
0.0098
  41
0.0098
  0
VERTEX
  8
Element
  10
4.975
  20
4.8591
  42
0
  0
VERTEX
  8
Element
  10
4.575
  20
4.8591
  42
0
  0
SEQEND
  0
POLYLINE
  8
Element
  6
CONTINUOUS
  66
1
  70
0
  40
0.0049
  41
0.0049
  0
VERTEX
  8
Element
  10
4.9725
  20
4.8591
  42
1
  0
VERTEX
  8
Element
  10
4.9775
  20
4.8591
  42
1
  0
VERTEX
  8
Element
  10
4.9725
  20
4.8591
  42
1
  0
SEQEND
  0
POLYLINE
  8
Element
  6
CONTINUOUS
  66
1
  70
0
  40
0.0049
  41
0.0049
  0
VERTEX
  8
Element
  10
4.5725
  20
4.8591
  42
1
  0
VERTEX
  8
Element
  10
4.5775
  20
4.8591
  42
1
  0
VERTEX
  8
Element
  10
4.5725
  20
4.8591
  42
1
  0
SEQEND
  0
POLYLINE
  8
Element
  6
CONTINUOUS
  66
1
  70
0
  40
0.0098
  41
0.0098
  0
VERTEX
  8
Element
  10
4.575
  20
4.8591
  42
0
  0
VERTEX
  8
Element
  10
4.575
  20
4.9591
  42
0
  0
SEQEND
  0
POLYLINE
  8
Element
  6
CONTINUOUS
  66
1
  70
0
  40
0.0049
  41
0.0049
  0
VERTEX
  8
Element
  10
4.5725
  20
4.8591
  42
1
  0
VERTEX
  8
Element
  10
4.5775
  20
4.8591
  42
1
  0
VERTEX
  8
Element
  10
4.5725
  20
4.8591
  42
1
  0
SEQEND
  0
POLYLINE
  8
Element
  6
CONTINUOUS
  66
1
  70
0
  40
0.0049
  41
0.0049
  0
VERTEX
  8
Element
  10
4.5725
  20
4.9591
  42
1
  0
VERTEX
  8
Element
  10
4.5775
  20
4.9591
  42
1
  0
VERTEX
  8
Element
  10
4.5725
  20
4.9591
  42
1
  0
SEQEND
  0
POLYLINE
  8
Element
  6
CONTINUOUS
  66
1
  70
0
  40
0.0098
  41
0.0098
  0
VERTEX
  8
Element
  10
4.575
  20
4.9591
  42
0
  0
VERTEX
  8
Element
  10
4.975
  20
4.9591
  42
0
  0
SEQEND
  0
POLYLINE
  8
Element
  6
CONTINUOUS
  66
1
  70
0
  40
0.0049
  41
0.0049
  0
VERTEX
  8
Element
  10
4.5725
  20
4.9591
  42
1
  0
VERTEX
  8
Element
  10
4.5775
  20
4.9591
  42
1
  0
VERTEX
  8
Element
  10
4.5725
  20
4.9591
  42
1
  0
SEQEND
  0
POLYLINE
  8
Element
  6
CONTINUOUS
  66
1
  70
0
  40
0.0049
  41
0.0049
  0
VERTEX
  8
Element
  10
4.9725
  20
4.9591
  42
1
  0
VERTEX
  8
Element
  10
4.9775
  20
4.9591
  42
1
  0
VERTEX
  8
Element
  10
4.9725
  20
4.9591
  42
1
  0
SEQEND
  0
POLYLINE
  8
Element
  6
CONTINUOUS
  66
1
  70
0
  40
0.0098
  41
0.0098
  0
VERTEX
  8
Element
  10
4.825
  20
3.6841
  42
0
  0
VERTEX
  8
Element
  10
4.775
  20
3.6341
  42
0
  0
SEQEND
  0
POLYLINE
  8
Element
  6
CONTINUOUS
  66
1
  70
0
  40
0.0049
  41
0.0049
  0
VERTEX
  8
Element
  10
4.8225
  20
3.6841
  42
1
  0
VERTEX
  8
Element
  10
4.8275
  20
3.6841
  42
1
  0
VERTEX
  8
Element
  10
4.8225
  20
3.6841
  42
1
  0
SEQEND
  0
POLYLINE
  8
Element
  6
CONTINUOUS
  66
1
  70
0
  40
0.0049
  41
0.0049
  0
VERTEX
  8
Element
  10
4.7725
  20
3.6341
  42
1
  0
VERTEX
  8
Element
  10
4.7775
  20
3.6341
  42
1
  0
VERTEX
  8
Element
  10
4.7725
  20
3.6341
  42
1
  0
SEQEND
  0
POLYLINE
  8
Element
  6
CONTINUOUS
  66
1
  70
0
  40
0.0098
  41
0.0098
  0
VERTEX
  8
Element
  10
4.825
  20
3.6841
  42
0
  0
VERTEX
  8
Element
  10
4.775
  20
3.7341
  42
0
  0
SEQEND
  0
POLYLINE
  8
Element
  6
CONTINUOUS
  66
1
  70
0
  40
0.0049
  41
0.0049
  0
VERTEX
  8
Element
  10
4.8225
  20
3.6841
  42
1
  0
VERTEX
  8
Element
  10
4.8275
  20
3.6841
  42
1
  0
VERTEX
  8
Element
  10
4.8225
  20
3.6841
  42
1
  0
SEQEND
  0
POLYLINE
  8
Element
  6
CONTINUOUS
  66
1
  70
0
  40
0.0049
  41
0.0049
  0
VERTEX
  8
Element
  10
4.7725
  20
3.7341
  42
1
  0
VERTEX
  8
Element
  10
4.7775
  20
3.7341
  42
1
  0
VERTEX
  8
Element
  10
4.7725
  20
3.7341
  42
1
  0
SEQEND
  0
POLYLINE
  8
Element
  6
CONTINUOUS
  66
1
  70
0
  40
0.0098
  41
0.0098
  0
VERTEX
  8
Element
  10
4.825
  20
3.6841
  42
0
  0
VERTEX
  8
Element
  10
4.6
  20
3.6841
  42
0
  0
SEQEND
  0
POLYLINE
  8
Element
  6
CONTINUOUS
  66
1
  70
0
  40
0.0049
  41
0.0049
  0
VERTEX
  8
Element
  10
4.8225
  20
3.6841
  42
1
  0
VERTEX
  8
Element
  10
4.8275
  20
3.6841
  42
1
  0
VERTEX
  8
Element
  10
4.8225
  20
3.6841
  42
1
  0
SEQEND
  0
POLYLINE
  8
Element
  6
CONTINUOUS
  66
1
  70
0
  40
0.0049
  41
0.0049
  0
VERTEX
  8
Element
  10
4.5975
  20
3.6841
  42
1
  0
VERTEX
  8
Element
  10
4.6025
  20
3.6841
  42
1
  0
VERTEX
  8
Element
  10
4.5975
  20
3.6841
  42
1
  0
SEQEND
  0
POLYLINE
  8
Element
  6
CONTINUOUS
  66
1
  70
0
  40
0.0098
  41
0.0098
  0
VERTEX
  8
Element
  10
5.0
  20
3.7341
  42
0
  0
VERTEX
  8
Element
  10
5.0
  20
3.6341
  42
0
  0
SEQEND
  0
POLYLINE
  8
Element
  6
CONTINUOUS
  66
1
  70
0
  40
0.0049
  41
0.0049
  0
VERTEX
  8
Element
  10
4.9975
  20
3.7341
  42
1
  0
VERTEX
  8
Element
  10
5.0025
  20
3.7341
  42
1
  0
VERTEX
  8
Element
  10
4.9975
  20
3.7341
  42
1
  0
SEQEND
  0
POLYLINE
  8
Element
  6
CONTINUOUS
  66
1
  70
0
  40
0.0049
  41
0.0049
  0
VERTEX
  8
Element
  10
4.9975
  20
3.6341
  42
1
  0
VERTEX
  8
Element
  10
5.0025
  20
3.6341
  42
1
  0
VERTEX
  8
Element
  10
4.9975
  20
3.6341
  42
1
  0
SEQEND
  0
POLYLINE
  8
Element
  6
CONTINUOUS
  66
1
  70
0
  40
0.0098
  41
0.0098
  0
VERTEX
  8
Element
  10
5.0
  20
3.6341
  42
0
  0
VERTEX
  8
Element
  10
4.6
  20
3.6341
  42
0
  0
SEQEND
  0
POLYLINE
  8
Element
  6
CONTINUOUS
  66
1
  70
0
  40
0.0049
  41
0.0049
  0
VERTEX
  8
Element
  10
4.9975
  20
3.6341
  42
1
  0
VERTEX
  8
Element
  10
5.0025
  20
3.6341
  42
1
  0
VERTEX
  8
Element
  10
4.9975
  20
3.6341
  42
1
  0
SEQEND
  0
POLYLINE
  8
Element
  6
CONTINUOUS
  66
1
  70
0
  40
0.0049
  41
0.0049
  0
VERTEX
  8
Element
  10
4.5975
  20
3.6341
  42
1
  0
VERTEX
  8
Element
  10
4.6025
  20
3.6341
  42
1
  0
VERTEX
  8
Element
  10
4.5975
  20
3.6341
  42
1
  0
SEQEND
  0
POLYLINE
  8
Element
  6
CONTINUOUS
  66
1
  70
0
  40
0.0098
  41
0.0098
  0
VERTEX
  8
Element
  10
4.6
  20
3.6341
  42
0
  0
VERTEX
  8
Element
  10
4.6
  20
3.7341
  42
0
  0
SEQEND
  0
POLYLINE
  8
Element
  6
CONTINUOUS
  66
1
  70
0
  40
0.0049
  41
0.0049
  0
VERTEX
  8
Element
  10
4.5975
  20
3.6341
  42
1
  0
VERTEX
  8
Element
  10
4.6025
  20
3.6341
  42
1
  0
VERTEX
  8
Element
  10
4.5975
  20
3.6341
  42
1
  0
SEQEND
  0
POLYLINE
  8
Element
  6
CONTINUOUS
  66
1
  70
0
  40
0.0049
  41
0.0049
  0
VERTEX
  8
Element
  10
4.5975
  20
3.7341
  42
1
  0
VERTEX
  8
Element
  10
4.6025
  20
3.7341
  42
1
  0
VERTEX
  8
Element
  10
4.5975
  20
3.7341
  42
1
  0
SEQEND
  0
POLYLINE
  8
Element
  6
CONTINUOUS
  66
1
  70
0
  40
0.0098
  41
0.0098
  0
VERTEX
  8
Element
  10
4.6
  20
3.7341
  42
0
  0
VERTEX
  8
Element
  10
5.0
  20
3.7341
  42
0
  0
SEQEND
  0
POLYLINE
  8
Element
  6
CONTINUOUS
  66
1
  70
0
  40
0.0049
  41
0.0049
  0
VERTEX
  8
Element
  10
4.5975
  20
3.7341
  42
1
  0
VERTEX
  8
Element
  10
4.6025
  20
3.7341
  42
1
  0
VERTEX
  8
Element
  10
4.5975
  20
3.7341
  42
1
  0
SEQEND
  0
POLYLINE
  8
Element
  6
CONTINUOUS
  66
1
  70
0
  40
0.0049
  41
0.0049
  0
VERTEX
  8
Element
  10
4.9975
  20
3.7341
  42
1
  0
VERTEX
  8
Element
  10
5.0025
  20
3.7341
  42
1
  0
VERTEX
  8
Element
  10
4.9975
  20
3.7341
  42
1
  0
SEQEND
  0
POLYLINE
  8
Element
  6
CONTINUOUS
  66
1
  70
0
  40
0.0098
  41
0.0098
  0
VERTEX
  8
Element
  10
4.825
  20
4.1341
  42
0
  0
VERTEX
  8
Element
  10
4.775
  20
4.0841
  42
0
  0
SEQEND
  0
POLYLINE
  8
Element
  6
CONTINUOUS
  66
1
  70
0
  40
0.0049
  41
0.0049
  0
VERTEX
  8
Element
  10
4.8225
  20
4.1341
  42
1
  0
VERTEX
  8
Element
  10
4.8275
  20
4.1341
  42
1
  0
VERTEX
  8
Element
  10
4.8225
  20
4.1341
  42
1
  0
SEQEND
  0
POLYLINE
  8
Element
  6
CONTINUOUS
  66
1
  70
0
  40
0.0049
  41
0.0049
  0
VERTEX
  8
Element
  10
4.7725
  20
4.0841
  42
1
  0
VERTEX
  8
Element
  10
4.7775
  20
4.0841
  42
1
  0
VERTEX
  8
Element
  10
4.7725
  20
4.0841
  42
1
  0
SEQEND
  0
POLYLINE
  8
Element
  6
CONTINUOUS
  66
1
  70
0
  40
0.0098
  41
0.0098
  0
VERTEX
  8
Element
  10
4.825
  20
4.1341
  42
0
  0
VERTEX
  8
Element
  10
4.775
  20
4.1841
  42
0
  0
SEQEND
  0
POLYLINE
  8
Element
  6
CONTINUOUS
  66
1
  70
0
  40
0.0049
  41
0.0049
  0
VERTEX
  8
Element
  10
4.8225
  20
4.1341
  42
1
  0
VERTEX
  8
Element
  10
4.8275
  20
4.1341
  42
1
  0
VERTEX
  8
Element
  10
4.8225
  20
4.1341
  42
1
  0
SEQEND
  0
POLYLINE
  8
Element
  6
CONTINUOUS
  66
1
  70
0
  40
0.0049
  41
0.0049
  0
VERTEX
  8
Element
  10
4.7725
  20
4.1841
  42
1
  0
VERTEX
  8
Element
  10
4.7775
  20
4.1841
  42
1
  0
VERTEX
  8
Element
  10
4.7725
  20
4.1841
  42
1
  0
SEQEND
  0
POLYLINE
  8
Element
  6
CONTINUOUS
  66
1
  70
0
  40
0.0098
  41
0.0098
  0
VERTEX
  8
Element
  10
4.825
  20
4.1341
  42
0
  0
VERTEX
  8
Element
  10
4.6
  20
4.1341
  42
0
  0
SEQEND
  0
POLYLINE
  8
Element
  6
CONTINUOUS
  66
1
  70
0
  40
0.0049
  41
0.0049
  0
VERTEX
  8
Element
  10
4.8225
  20
4.1341
  42
1
  0
VERTEX
  8
Element
  10
4.8275
  20
4.1341
  42
1
  0
VERTEX
  8
Element
  10
4.8225
  20
4.1341
  42
1
  0
SEQEND
  0
POLYLINE
  8
Element
  6
CONTINUOUS
  66
1
  70
0
  40
0.0049
  41
0.0049
  0
VERTEX
  8
Element
  10
4.5975
  20
4.1341
  42
1
  0
VERTEX
  8
Element
  10
4.6025
  20
4.1341
  42
1
  0
VERTEX
  8
Element
  10
4.5975
  20
4.1341
  42
1
  0
SEQEND
  0
POLYLINE
  8
Element
  6
CONTINUOUS
  66
1
  70
0
  40
0.0098
  41
0.0098
  0
VERTEX
  8
Element
  10
5.0
  20
4.1841
  42
0
  0
VERTEX
  8
Element
  10
5.0
  20
4.0841
  42
0
  0
SEQEND
  0
POLYLINE
  8
Element
  6
CONTINUOUS
  66
1
  70
0
  40
0.0049
  41
0.0049
  0
VERTEX
  8
Element
  10
4.9975
  20
4.1841
  42
1
  0
VERTEX
  8
Element
  10
5.0025
  20
4.1841
  42
1
  0
VERTEX
  8
Element
  10
4.9975
  20
4.1841
  42
1
  0
SEQEND
  0
POLYLINE
  8
Element
  6
CONTINUOUS
  66
1
  70
0
  40
0.0049
  41
0.0049
  0
VERTEX
  8
Element
  10
4.9975
  20
4.0841
  42
1
  0
VERTEX
  8
Element
  10
5.0025
  20
4.0841
  42
1
  0
VERTEX
  8
Element
  10
4.9975
  20
4.0841
  42
1
  0
SEQEND
  0
POLYLINE
  8
Element
  6
CONTINUOUS
  66
1
  70
0
  40
0.0098
  41
0.0098
  0
VERTEX
  8
Element
  10
5.0
  20
4.0841
  42
0
  0
VERTEX
  8
Element
  10
4.6
  20
4.0841
  42
0
  0
SEQEND
  0
POLYLINE
  8
Element
  6
CONTINUOUS
  66
1
  70
0
  40
0.0049
  41
0.0049
  0
VERTEX
  8
Element
  10
4.9975
  20
4.0841
  42
1
  0
VERTEX
  8
Element
  10
5.0025
  20
4.0841
  42
1
  0
VERTEX
  8
Element
  10
4.9975
  20
4.0841
  42
1
  0
SEQEND
  0
POLYLINE
  8
Element
  6
CONTINUOUS
  66
1
  70
0
  40
0.0049
  41
0.0049
  0
VERTEX
  8
Element
  10
4.5975
  20
4.0841
  42
1
  0
VERTEX
  8
Element
  10
4.6025
  20
4.0841
  42
1
  0
VERTEX
  8
Element
  10
4.5975
  20
4.0841
  42
1
  0
SEQEND
  0
POLYLINE
  8
Element
  6
CONTINUOUS
  66
1
  70
0
  40
0.0098
  41
0.0098
  0
VERTEX
  8
Element
  10
4.6
  20
4.0841
  42
0
  0
VERTEX
  8
Element
  10
4.6
  20
4.1841
  42
0
  0
SEQEND
  0
POLYLINE
  8
Element
  6
CONTINUOUS
  66
1
  70
0
  40
0.0049
  41
0.0049
  0
VERTEX
  8
Element
  10
4.5975
  20
4.0841
  42
1
  0
VERTEX
  8
Element
  10
4.6025
  20
4.0841
  42
1
  0
VERTEX
  8
Element
  10
4.5975
  20
4.0841
  42
1
  0
SEQEND
  0
POLYLINE
  8
Element
  6
CONTINUOUS
  66
1
  70
0
  40
0.0049
  41
0.0049
  0
VERTEX
  8
Element
  10
4.5975
  20
4.1841
  42
1
  0
VERTEX
  8
Element
  10
4.6025
  20
4.1841
  42
1
  0
VERTEX
  8
Element
  10
4.5975
  20
4.1841
  42
1
  0
SEQEND
  0
POLYLINE
  8
Element
  6
CONTINUOUS
  66
1
  70
0
  40
0.0098
  41
0.0098
  0
VERTEX
  8
Element
  10
4.6
  20
4.1841
  42
0
  0
VERTEX
  8
Element
  10
5.0
  20
4.1841
  42
0
  0
SEQEND
  0
POLYLINE
  8
Element
  6
CONTINUOUS
  66
1
  70
0
  40
0.0049
  41
0.0049
  0
VERTEX
  8
Element
  10
4.5975
  20
4.1841
  42
1
  0
VERTEX
  8
Element
  10
4.6025
  20
4.1841
  42
1
  0
VERTEX
  8
Element
  10
4.5975
  20
4.1841
  42
1
  0
SEQEND
  0
POLYLINE
  8
Element
  6
CONTINUOUS
  66
1
  70
0
  40
0.0049
  41
0.0049
  0
VERTEX
  8
Element
  10
4.9975
  20
4.1841
  42
1
  0
VERTEX
  8
Element
  10
5.0025
  20
4.1841
  42
1
  0
VERTEX
  8
Element
  10
4.9975
  20
4.1841
  42
1
  0
SEQEND
  0
POLYLINE
  8
Element
  6
CONTINUOUS
  66
1
  70
0
  40
0.0098
  41
0.0098
  0
VERTEX
  8
Element
  10
4.85
  20
2.8091
  42
0
  0
VERTEX
  8
Element
  10
4.8
  20
2.7591
  42
0
  0
SEQEND
  0
POLYLINE
  8
Element
  6
CONTINUOUS
  66
1
  70
0
  40
0.0049
  41
0.0049
  0
VERTEX
  8
Element
  10
4.8475
  20
2.8091
  42
1
  0
VERTEX
  8
Element
  10
4.8525
  20
2.8091
  42
1
  0
VERTEX
  8
Element
  10
4.8475
  20
2.8091
  42
1
  0
SEQEND
  0
POLYLINE
  8
Element
  6
CONTINUOUS
  66
1
  70
0
  40
0.0049
  41
0.0049
  0
VERTEX
  8
Element
  10
4.7975
  20
2.7591
  42
1
  0
VERTEX
  8
Element
  10
4.8025
  20
2.7591
  42
1
  0
VERTEX
  8
Element
  10
4.7975
  20
2.7591
  42
1
  0
SEQEND
  0
POLYLINE
  8
Element
  6
CONTINUOUS
  66
1
  70
0
  40
0.0098
  41
0.0098
  0
VERTEX
  8
Element
  10
4.85
  20
2.8091
  42
0
  0
VERTEX
  8
Element
  10
4.8
  20
2.8591
  42
0
  0
SEQEND
  0
POLYLINE
  8
Element
  6
CONTINUOUS
  66
1
  70
0
  40
0.0049
  41
0.0049
  0
VERTEX
  8
Element
  10
4.8475
  20
2.8091
  42
1
  0
VERTEX
  8
Element
  10
4.8525
  20
2.8091
  42
1
  0
VERTEX
  8
Element
  10
4.8475
  20
2.8091
  42
1
  0
SEQEND
  0
POLYLINE
  8
Element
  6
CONTINUOUS
  66
1
  70
0
  40
0.0049
  41
0.0049
  0
VERTEX
  8
Element
  10
4.7975
  20
2.8591
  42
1
  0
VERTEX
  8
Element
  10
4.8025
  20
2.8591
  42
1
  0
VERTEX
  8
Element
  10
4.7975
  20
2.8591
  42
1
  0
SEQEND
  0
POLYLINE
  8
Element
  6
CONTINUOUS
  66
1
  70
0
  40
0.0098
  41
0.0098
  0
VERTEX
  8
Element
  10
4.85
  20
2.8091
  42
0
  0
VERTEX
  8
Element
  10
4.625
  20
2.8091
  42
0
  0
SEQEND
  0
POLYLINE
  8
Element
  6
CONTINUOUS
  66
1
  70
0
  40
0.0049
  41
0.0049
  0
VERTEX
  8
Element
  10
4.8475
  20
2.8091
  42
1
  0
VERTEX
  8
Element
  10
4.8525
  20
2.8091
  42
1
  0
VERTEX
  8
Element
  10
4.8475
  20
2.8091
  42
1
  0
SEQEND
  0
POLYLINE
  8
Element
  6
CONTINUOUS
  66
1
  70
0
  40
0.0049
  41
0.0049
  0
VERTEX
  8
Element
  10
4.6225
  20
2.8091
  42
1
  0
VERTEX
  8
Element
  10
4.6275
  20
2.8091
  42
1
  0
VERTEX
  8
Element
  10
4.6225
  20
2.8091
  42
1
  0
SEQEND
  0
POLYLINE
  8
Element
  6
CONTINUOUS
  66
1
  70
0
  40
0.0098
  41
0.0098
  0
VERTEX
  8
Element
  10
5.025
  20
2.8591
  42
0
  0
VERTEX
  8
Element
  10
5.025
  20
2.7591
  42
0
  0
SEQEND
  0
POLYLINE
  8
Element
  6
CONTINUOUS
  66
1
  70
0
  40
0.0049
  41
0.0049
  0
VERTEX
  8
Element
  10
5.0225
  20
2.8591
  42
1
  0
VERTEX
  8
Element
  10
5.0275
  20
2.8591
  42
1
  0
VERTEX
  8
Element
  10
5.0225
  20
2.8591
  42
1
  0
SEQEND
  0
POLYLINE
  8
Element
  6
CONTINUOUS
  66
1
  70
0
  40
0.0049
  41
0.0049
  0
VERTEX
  8
Element
  10
5.0225
  20
2.7591
  42
1
  0
VERTEX
  8
Element
  10
5.0275
  20
2.7591
  42
1
  0
VERTEX
  8
Element
  10
5.0225
  20
2.7591
  42
1
  0
SEQEND
  0
POLYLINE
  8
Element
  6
CONTINUOUS
  66
1
  70
0
  40
0.0098
  41
0.0098
  0
VERTEX
  8
Element
  10
5.025
  20
2.7591
  42
0
  0
VERTEX
  8
Element
  10
4.625
  20
2.7591
  42
0
  0
SEQEND
  0
POLYLINE
  8
Element
  6
CONTINUOUS
  66
1
  70
0
  40
0.0049
  41
0.0049
  0
VERTEX
  8
Element
  10
5.0225
  20
2.7591
  42
1
  0
VERTEX
  8
Element
  10
5.0275
  20
2.7591
  42
1
  0
VERTEX
  8
Element
  10
5.0225
  20
2.7591
  42
1
  0
SEQEND
  0
POLYLINE
  8
Element
  6
CONTINUOUS
  66
1
  70
0
  40
0.0049
  41
0.0049
  0
VERTEX
  8
Element
  10
4.6225
  20
2.7591
  42
1
  0
VERTEX
  8
Element
  10
4.6275
  20
2.7591
  42
1
  0
VERTEX
  8
Element
  10
4.6225
  20
2.7591
  42
1
  0
SEQEND
  0
POLYLINE
  8
Element
  6
CONTINUOUS
  66
1
  70
0
  40
0.0098
  41
0.0098
  0
VERTEX
  8
Element
  10
4.625
  20
2.7591
  42
0
  0
VERTEX
  8
Element
  10
4.625
  20
2.8591
  42
0
  0
SEQEND
  0
POLYLINE
  8
Element
  6
CONTINUOUS
  66
1
  70
0
  40
0.0049
  41
0.0049
  0
VERTEX
  8
Element
  10
4.6225
  20
2.7591
  42
1
  0
VERTEX
  8
Element
  10
4.6275
  20
2.7591
  42
1
  0
VERTEX
  8
Element
  10
4.6225
  20
2.7591
  42
1
  0
SEQEND
  0
POLYLINE
  8
Element
  6
CONTINUOUS
  66
1
  70
0
  40
0.0049
  41
0.0049
  0
VERTEX
  8
Element
  10
4.6225
  20
2.8591
  42
1
  0
VERTEX
  8
Element
  10
4.6275
  20
2.8591
  42
1
  0
VERTEX
  8
Element
  10
4.6225
  20
2.8591
  42
1
  0
SEQEND
  0
POLYLINE
  8
Element
  6
CONTINUOUS
  66
1
  70
0
  40
0.0098
  41
0.0098
  0
VERTEX
  8
Element
  10
4.625
  20
2.8591
  42
0
  0
VERTEX
  8
Element
  10
5.025
  20
2.8591
  42
0
  0
SEQEND
  0
POLYLINE
  8
Element
  6
CONTINUOUS
  66
1
  70
0
  40
0.0049
  41
0.0049
  0
VERTEX
  8
Element
  10
4.6225
  20
2.8591
  42
1
  0
VERTEX
  8
Element
  10
4.6275
  20
2.8591
  42
1
  0
VERTEX
  8
Element
  10
4.6225
  20
2.8591
  42
1
  0
SEQEND
  0
POLYLINE
  8
Element
  6
CONTINUOUS
  66
1
  70
0
  40
0.0049
  41
0.0049
  0
VERTEX
  8
Element
  10
5.0225
  20
2.8591
  42
1
  0
VERTEX
  8
Element
  10
5.0275
  20
2.8591
  42
1
  0
VERTEX
  8
Element
  10
5.0225
  20
2.8591
  42
1
  0
SEQEND
  0
POLYLINE
  8
Element
  6
CONTINUOUS
  66
1
  70
0
  40
0.0098
  41
0.0098
  0
VERTEX
  8
Element
  10
4.825
  20
3.1841
  42
0
  0
VERTEX
  8
Element
  10
4.775
  20
3.1341
  42
0
  0
SEQEND
  0
POLYLINE
  8
Element
  6
CONTINUOUS
  66
1
  70
0
  40
0.0049
  41
0.0049
  0
VERTEX
  8
Element
  10
4.8225
  20
3.1841
  42
1
  0
VERTEX
  8
Element
  10
4.8275
  20
3.1841
  42
1
  0
VERTEX
  8
Element
  10
4.8225
  20
3.1841
  42
1
  0
SEQEND
  0
POLYLINE
  8
Element
  6
CONTINUOUS
  66
1
  70
0
  40
0.0049
  41
0.0049
  0
VERTEX
  8
Element
  10
4.7725
  20
3.1341
  42
1
  0
VERTEX
  8
Element
  10
4.7775
  20
3.1341
  42
1
  0
VERTEX
  8
Element
  10
4.7725
  20
3.1341
  42
1
  0
SEQEND
  0
POLYLINE
  8
Element
  6
CONTINUOUS
  66
1
  70
0
  40
0.0098
  41
0.0098
  0
VERTEX
  8
Element
  10
4.825
  20
3.1841
  42
0
  0
VERTEX
  8
Element
  10
4.775
  20
3.2341
  42
0
  0
SEQEND
  0
POLYLINE
  8
Element
  6
CONTINUOUS
  66
1
  70
0
  40
0.0049
  41
0.0049
  0
VERTEX
  8
Element
  10
4.8225
  20
3.1841
  42
1
  0
VERTEX
  8
Element
  10
4.8275
  20
3.1841
  42
1
  0
VERTEX
  8
Element
  10
4.8225
  20
3.1841
  42
1
  0
SEQEND
  0
POLYLINE
  8
Element
  6
CONTINUOUS
  66
1
  70
0
  40
0.0049
  41
0.0049
  0
VERTEX
  8
Element
  10
4.7725
  20
3.2341
  42
1
  0
VERTEX
  8
Element
  10
4.7775
  20
3.2341
  42
1
  0
VERTEX
  8
Element
  10
4.7725
  20
3.2341
  42
1
  0
SEQEND
  0
POLYLINE
  8
Element
  6
CONTINUOUS
  66
1
  70
0
  40
0.0098
  41
0.0098
  0
VERTEX
  8
Element
  10
4.825
  20
3.1841
  42
0
  0
VERTEX
  8
Element
  10
4.6
  20
3.1841
  42
0
  0
SEQEND
  0
POLYLINE
  8
Element
  6
CONTINUOUS
  66
1
  70
0
  40
0.0049
  41
0.0049
  0
VERTEX
  8
Element
  10
4.8225
  20
3.1841
  42
1
  0
VERTEX
  8
Element
  10
4.8275
  20
3.1841
  42
1
  0
VERTEX
  8
Element
  10
4.8225
  20
3.1841
  42
1
  0
SEQEND
  0
POLYLINE
  8
Element
  6
CONTINUOUS
  66
1
  70
0
  40
0.0049
  41
0.0049
  0
VERTEX
  8
Element
  10
4.5975
  20
3.1841
  42
1
  0
VERTEX
  8
Element
  10
4.6025
  20
3.1841
  42
1
  0
VERTEX
  8
Element
  10
4.5975
  20
3.1841
  42
1
  0
SEQEND
  0
POLYLINE
  8
Element
  6
CONTINUOUS
  66
1
  70
0
  40
0.0098
  41
0.0098
  0
VERTEX
  8
Element
  10
5.0
  20
3.2341
  42
0
  0
VERTEX
  8
Element
  10
5.0
  20
3.1341
  42
0
  0
SEQEND
  0
POLYLINE
  8
Element
  6
CONTINUOUS
  66
1
  70
0
  40
0.0049
  41
0.0049
  0
VERTEX
  8
Element
  10
4.9975
  20
3.2341
  42
1
  0
VERTEX
  8
Element
  10
5.0025
  20
3.2341
  42
1
  0
VERTEX
  8
Element
  10
4.9975
  20
3.2341
  42
1
  0
SEQEND
  0
POLYLINE
  8
Element
  6
CONTINUOUS
  66
1
  70
0
  40
0.0049
  41
0.0049
  0
VERTEX
  8
Element
  10
4.9975
  20
3.1341
  42
1
  0
VERTEX
  8
Element
  10
5.0025
  20
3.1341
  42
1
  0
VERTEX
  8
Element
  10
4.9975
  20
3.1341
  42
1
  0
SEQEND
  0
POLYLINE
  8
Element
  6
CONTINUOUS
  66
1
  70
0
  40
0.0098
  41
0.0098
  0
VERTEX
  8
Element
  10
5.0
  20
3.1341
  42
0
  0
VERTEX
  8
Element
  10
4.6
  20
3.1341
  42
0
  0
SEQEND
  0
POLYLINE
  8
Element
  6
CONTINUOUS
  66
1
  70
0
  40
0.0049
  41
0.0049
  0
VERTEX
  8
Element
  10
4.9975
  20
3.1341
  42
1
  0
VERTEX
  8
Element
  10
5.0025
  20
3.1341
  42
1
  0
VERTEX
  8
Element
  10
4.9975
  20
3.1341
  42
1
  0
SEQEND
  0
POLYLINE
  8
Element
  6
CONTINUOUS
  66
1
  70
0
  40
0.0049
  41
0.0049
  0
VERTEX
  8
Element
  10
4.5975
  20
3.1341
  42
1
  0
VERTEX
  8
Element
  10
4.6025
  20
3.1341
  42
1
  0
VERTEX
  8
Element
  10
4.5975
  20
3.1341
  42
1
  0
SEQEND
  0
POLYLINE
  8
Element
  6
CONTINUOUS
  66
1
  70
0
  40
0.0098
  41
0.0098
  0
VERTEX
  8
Element
  10
4.6
  20
3.1341
  42
0
  0
VERTEX
  8
Element
  10
4.6
  20
3.2341
  42
0
  0
SEQEND
  0
POLYLINE
  8
Element
  6
CONTINUOUS
  66
1
  70
0
  40
0.0049
  41
0.0049
  0
VERTEX
  8
Element
  10
4.5975
  20
3.1341
  42
1
  0
VERTEX
  8
Element
  10
4.6025
  20
3.1341
  42
1
  0
VERTEX
  8
Element
  10
4.5975
  20
3.1341
  42
1
  0
SEQEND
  0
POLYLINE
  8
Element
  6
CONTINUOUS
  66
1
  70
0
  40
0.0049
  41
0.0049
  0
VERTEX
  8
Element
  10
4.5975
  20
3.2341
  42
1
  0
VERTEX
  8
Element
  10
4.6025
  20
3.2341
  42
1
  0
VERTEX
  8
Element
  10
4.5975
  20
3.2341
  42
1
  0
SEQEND
  0
POLYLINE
  8
Element
  6
CONTINUOUS
  66
1
  70
0
  40
0.0098
  41
0.0098
  0
VERTEX
  8
Element
  10
4.6
  20
3.2341
  42
0
  0
VERTEX
  8
Element
  10
5.0
  20
3.2341
  42
0
  0
SEQEND
  0
POLYLINE
  8
Element
  6
CONTINUOUS
  66
1
  70
0
  40
0.0049
  41
0.0049
  0
VERTEX
  8
Element
  10
4.5975
  20
3.2341
  42
1
  0
VERTEX
  8
Element
  10
4.6025
  20
3.2341
  42
1
  0
VERTEX
  8
Element
  10
4.5975
  20
3.2341
  42
1
  0
SEQEND
  0
POLYLINE
  8
Element
  6
CONTINUOUS
  66
1
  70
0
  40
0.0049
  41
0.0049
  0
VERTEX
  8
Element
  10
4.9975
  20
3.2341
  42
1
  0
VERTEX
  8
Element
  10
5.0025
  20
3.2341
  42
1
  0
VERTEX
  8
Element
  10
4.9975
  20
3.2341
  42
1
  0
SEQEND
  0
POLYLINE
  8
Element
  6
CONTINUOUS
  66
1
  70
0
  40
0.0098
  41
0.0098
  0
VERTEX
  8
Element
  10
4.85
  20
1.9091
  42
0
  0
VERTEX
  8
Element
  10
4.8
  20
1.8591
  42
0
  0
SEQEND
  0
POLYLINE
  8
Element
  6
CONTINUOUS
  66
1
  70
0
  40
0.0049
  41
0.0049
  0
VERTEX
  8
Element
  10
4.8475
  20
1.9091
  42
1
  0
VERTEX
  8
Element
  10
4.8525
  20
1.9091
  42
1
  0
VERTEX
  8
Element
  10
4.8475
  20
1.9091
  42
1
  0
SEQEND
  0
POLYLINE
  8
Element
  6
CONTINUOUS
  66
1
  70
0
  40
0.0049
  41
0.0049
  0
VERTEX
  8
Element
  10
4.7975
  20
1.8591
  42
1
  0
VERTEX
  8
Element
  10
4.8025
  20
1.8591
  42
1
  0
VERTEX
  8
Element
  10
4.7975
  20
1.8591
  42
1
  0
SEQEND
  0
POLYLINE
  8
Element
  6
CONTINUOUS
  66
1
  70
0
  40
0.0098
  41
0.0098
  0
VERTEX
  8
Element
  10
4.85
  20
1.9091
  42
0
  0
VERTEX
  8
Element
  10
4.8
  20
1.9591
  42
0
  0
SEQEND
  0
POLYLINE
  8
Element
  6
CONTINUOUS
  66
1
  70
0
  40
0.0049
  41
0.0049
  0
VERTEX
  8
Element
  10
4.8475
  20
1.9091
  42
1
  0
VERTEX
  8
Element
  10
4.8525
  20
1.9091
  42
1
  0
VERTEX
  8
Element
  10
4.8475
  20
1.9091
  42
1
  0
SEQEND
  0
POLYLINE
  8
Element
  6
CONTINUOUS
  66
1
  70
0
  40
0.0049
  41
0.0049
  0
VERTEX
  8
Element
  10
4.7975
  20
1.9591
  42
1
  0
VERTEX
  8
Element
  10
4.8025
  20
1.9591
  42
1
  0
VERTEX
  8
Element
  10
4.7975
  20
1.9591
  42
1
  0
SEQEND
  0
POLYLINE
  8
Element
  6
CONTINUOUS
  66
1
  70
0
  40
0.0098
  41
0.0098
  0
VERTEX
  8
Element
  10
4.85
  20
1.9091
  42
0
  0
VERTEX
  8
Element
  10
4.625
  20
1.9091
  42
0
  0
SEQEND
  0
POLYLINE
  8
Element
  6
CONTINUOUS
  66
1
  70
0
  40
0.0049
  41
0.0049
  0
VERTEX
  8
Element
  10
4.8475
  20
1.9091
  42
1
  0
VERTEX
  8
Element
  10
4.8525
  20
1.9091
  42
1
  0
VERTEX
  8
Element
  10
4.8475
  20
1.9091
  42
1
  0
SEQEND
  0
POLYLINE
  8
Element
  6
CONTINUOUS
  66
1
  70
0
  40
0.0049
  41
0.0049
  0
VERTEX
  8
Element
  10
4.6225
  20
1.9091
  42
1
  0
VERTEX
  8
Element
  10
4.6275
  20
1.9091
  42
1
  0
VERTEX
  8
Element
  10
4.6225
  20
1.9091
  42
1
  0
SEQEND
  0
POLYLINE
  8
Element
  6
CONTINUOUS
  66
1
  70
0
  40
0.0098
  41
0.0098
  0
VERTEX
  8
Element
  10
5.025
  20
1.9591
  42
0
  0
VERTEX
  8
Element
  10
5.025
  20
1.8591
  42
0
  0
SEQEND
  0
POLYLINE
  8
Element
  6
CONTINUOUS
  66
1
  70
0
  40
0.0049
  41
0.0049
  0
VERTEX
  8
Element
  10
5.0225
  20
1.9591
  42
1
  0
VERTEX
  8
Element
  10
5.0275
  20
1.9591
  42
1
  0
VERTEX
  8
Element
  10
5.0225
  20
1.9591
  42
1
  0
SEQEND
  0
POLYLINE
  8
Element
  6
CONTINUOUS
  66
1
  70
0
  40
0.0049
  41
0.0049
  0
VERTEX
  8
Element
  10
5.0225
  20
1.8591
  42
1
  0
VERTEX
  8
Element
  10
5.0275
  20
1.8591
  42
1
  0
VERTEX
  8
Element
  10
5.0225
  20
1.8591
  42
1
  0
SEQEND
  0
POLYLINE
  8
Element
  6
CONTINUOUS
  66
1
  70
0
  40
0.0098
  41
0.0098
  0
VERTEX
  8
Element
  10
5.025
  20
1.8591
  42
0
  0
VERTEX
  8
Element
  10
4.625
  20
1.8591
  42
0
  0
SEQEND
  0
POLYLINE
  8
Element
  6
CONTINUOUS
  66
1
  70
0
  40
0.0049
  41
0.0049
  0
VERTEX
  8
Element
  10
5.0225
  20
1.8591
  42
1
  0
VERTEX
  8
Element
  10
5.0275
  20
1.8591
  42
1
  0
VERTEX
  8
Element
  10
5.0225
  20
1.8591
  42
1
  0
SEQEND
  0
POLYLINE
  8
Element
  6
CONTINUOUS
  66
1
  70
0
  40
0.0049
  41
0.0049
  0
VERTEX
  8
Element
  10
4.6225
  20
1.8591
  42
1
  0
VERTEX
  8
Element
  10
4.6275
  20
1.8591
  42
1
  0
VERTEX
  8
Element
  10
4.6225
  20
1.8591
  42
1
  0
SEQEND
  0
POLYLINE
  8
Element
  6
CONTINUOUS
  66
1
  70
0
  40
0.0098
  41
0.0098
  0
VERTEX
  8
Element
  10
4.625
  20
1.8591
  42
0
  0
VERTEX
  8
Element
  10
4.625
  20
1.9591
  42
0
  0
SEQEND
  0
POLYLINE
  8
Element
  6
CONTINUOUS
  66
1
  70
0
  40
0.0049
  41
0.0049
  0
VERTEX
  8
Element
  10
4.6225
  20
1.8591
  42
1
  0
VERTEX
  8
Element
  10
4.6275
  20
1.8591
  42
1
  0
VERTEX
  8
Element
  10
4.6225
  20
1.8591
  42
1
  0
SEQEND
  0
POLYLINE
  8
Element
  6
CONTINUOUS
  66
1
  70
0
  40
0.0049
  41
0.0049
  0
VERTEX
  8
Element
  10
4.6225
  20
1.9591
  42
1
  0
VERTEX
  8
Element
  10
4.6275
  20
1.9591
  42
1
  0
VERTEX
  8
Element
  10
4.6225
  20
1.9591
  42
1
  0
SEQEND
  0
POLYLINE
  8
Element
  6
CONTINUOUS
  66
1
  70
0
  40
0.0098
  41
0.0098
  0
VERTEX
  8
Element
  10
4.625
  20
1.9591
  42
0
  0
VERTEX
  8
Element
  10
5.025
  20
1.9591
  42
0
  0
SEQEND
  0
POLYLINE
  8
Element
  6
CONTINUOUS
  66
1
  70
0
  40
0.0049
  41
0.0049
  0
VERTEX
  8
Element
  10
4.6225
  20
1.9591
  42
1
  0
VERTEX
  8
Element
  10
4.6275
  20
1.9591
  42
1
  0
VERTEX
  8
Element
  10
4.6225
  20
1.9591
  42
1
  0
SEQEND
  0
POLYLINE
  8
Element
  6
CONTINUOUS
  66
1
  70
0
  40
0.0049
  41
0.0049
  0
VERTEX
  8
Element
  10
5.0225
  20
1.9591
  42
1
  0
VERTEX
  8
Element
  10
5.0275
  20
1.9591
  42
1
  0
VERTEX
  8
Element
  10
5.0225
  20
1.9591
  42
1
  0
SEQEND
  0
POLYLINE
  8
Element
  6
CONTINUOUS
  66
1
  70
0
  40
0.0098
  41
0.0098
  0
VERTEX
  8
Element
  10
4.8
  20
2.2591
  42
0
  0
VERTEX
  8
Element
  10
4.75
  20
2.2091
  42
0
  0
SEQEND
  0
POLYLINE
  8
Element
  6
CONTINUOUS
  66
1
  70
0
  40
0.0049
  41
0.0049
  0
VERTEX
  8
Element
  10
4.7975
  20
2.2591
  42
1
  0
VERTEX
  8
Element
  10
4.8025
  20
2.2591
  42
1
  0
VERTEX
  8
Element
  10
4.7975
  20
2.2591
  42
1
  0
SEQEND
  0
POLYLINE
  8
Element
  6
CONTINUOUS
  66
1
  70
0
  40
0.0049
  41
0.0049
  0
VERTEX
  8
Element
  10
4.7475
  20
2.2091
  42
1
  0
VERTEX
  8
Element
  10
4.7525
  20
2.2091
  42
1
  0
VERTEX
  8
Element
  10
4.7475
  20
2.2091
  42
1
  0
SEQEND
  0
POLYLINE
  8
Element
  6
CONTINUOUS
  66
1
  70
0
  40
0.0098
  41
0.0098
  0
VERTEX
  8
Element
  10
4.8
  20
2.2591
  42
0
  0
VERTEX
  8
Element
  10
4.75
  20
2.3091
  42
0
  0
SEQEND
  0
POLYLINE
  8
Element
  6
CONTINUOUS
  66
1
  70
0
  40
0.0049
  41
0.0049
  0
VERTEX
  8
Element
  10
4.7975
  20
2.2591
  42
1
  0
VERTEX
  8
Element
  10
4.8025
  20
2.2591
  42
1
  0
VERTEX
  8
Element
  10
4.7975
  20
2.2591
  42
1
  0
SEQEND
  0
POLYLINE
  8
Element
  6
CONTINUOUS
  66
1
  70
0
  40
0.0049
  41
0.0049
  0
VERTEX
  8
Element
  10
4.7475
  20
2.3091
  42
1
  0
VERTEX
  8
Element
  10
4.7525
  20
2.3091
  42
1
  0
VERTEX
  8
Element
  10
4.7475
  20
2.3091
  42
1
  0
SEQEND
  0
POLYLINE
  8
Element
  6
CONTINUOUS
  66
1
  70
0
  40
0.0098
  41
0.0098
  0
VERTEX
  8
Element
  10
4.8
  20
2.2591
  42
0
  0
VERTEX
  8
Element
  10
4.575
  20
2.2591
  42
0
  0
SEQEND
  0
POLYLINE
  8
Element
  6
CONTINUOUS
  66
1
  70
0
  40
0.0049
  41
0.0049
  0
VERTEX
  8
Element
  10
4.7975
  20
2.2591
  42
1
  0
VERTEX
  8
Element
  10
4.8025
  20
2.2591
  42
1
  0
VERTEX
  8
Element
  10
4.7975
  20
2.2591
  42
1
  0
SEQEND
  0
POLYLINE
  8
Element
  6
CONTINUOUS
  66
1
  70
0
  40
0.0049
  41
0.0049
  0
VERTEX
  8
Element
  10
4.5725
  20
2.2591
  42
1
  0
VERTEX
  8
Element
  10
4.5775
  20
2.2591
  42
1
  0
VERTEX
  8
Element
  10
4.5725
  20
2.2591
  42
1
  0
SEQEND
  0
POLYLINE
  8
Element
  6
CONTINUOUS
  66
1
  70
0
  40
0.0098
  41
0.0098
  0
VERTEX
  8
Element
  10
4.975
  20
2.3091
  42
0
  0
VERTEX
  8
Element
  10
4.975
  20
2.2091
  42
0
  0
SEQEND
  0
POLYLINE
  8
Element
  6
CONTINUOUS
  66
1
  70
0
  40
0.0049
  41
0.0049
  0
VERTEX
  8
Element
  10
4.9725
  20
2.3091
  42
1
  0
VERTEX
  8
Element
  10
4.9775
  20
2.3091
  42
1
  0
VERTEX
  8
Element
  10
4.9725
  20
2.3091
  42
1
  0
SEQEND
  0
POLYLINE
  8
Element
  6
CONTINUOUS
  66
1
  70
0
  40
0.0049
  41
0.0049
  0
VERTEX
  8
Element
  10
4.9725
  20
2.2091
  42
1
  0
VERTEX
  8
Element
  10
4.9775
  20
2.2091
  42
1
  0
VERTEX
  8
Element
  10
4.9725
  20
2.2091
  42
1
  0
SEQEND
  0
POLYLINE
  8
Element
  6
CONTINUOUS
  66
1
  70
0
  40
0.0098
  41
0.0098
  0
VERTEX
  8
Element
  10
4.975
  20
2.2091
  42
0
  0
VERTEX
  8
Element
  10
4.575
  20
2.2091
  42
0
  0
SEQEND
  0
POLYLINE
  8
Element
  6
CONTINUOUS
  66
1
  70
0
  40
0.0049
  41
0.0049
  0
VERTEX
  8
Element
  10
4.9725
  20
2.2091
  42
1
  0
VERTEX
  8
Element
  10
4.9775
  20
2.2091
  42
1
  0
VERTEX
  8
Element
  10
4.9725
  20
2.2091
  42
1
  0
SEQEND
  0
POLYLINE
  8
Element
  6
CONTINUOUS
  66
1
  70
0
  40
0.0049
  41
0.0049
  0
VERTEX
  8
Element
  10
4.5725
  20
2.2091
  42
1
  0
VERTEX
  8
Element
  10
4.5775
  20
2.2091
  42
1
  0
VERTEX
  8
Element
  10
4.5725
  20
2.2091
  42
1
  0
SEQEND
  0
POLYLINE
  8
Element
  6
CONTINUOUS
  66
1
  70
0
  40
0.0098
  41
0.0098
  0
VERTEX
  8
Element
  10
4.575
  20
2.2091
  42
0
  0
VERTEX
  8
Element
  10
4.575
  20
2.3091
  42
0
  0
SEQEND
  0
POLYLINE
  8
Element
  6
CONTINUOUS
  66
1
  70
0
  40
0.0049
  41
0.0049
  0
VERTEX
  8
Element
  10
4.5725
  20
2.2091
  42
1
  0
VERTEX
  8
Element
  10
4.5775
  20
2.2091
  42
1
  0
VERTEX
  8
Element
  10
4.5725
  20
2.2091
  42
1
  0
SEQEND
  0
POLYLINE
  8
Element
  6
CONTINUOUS
  66
1
  70
0
  40
0.0049
  41
0.0049
  0
VERTEX
  8
Element
  10
4.5725
  20
2.3091
  42
1
  0
VERTEX
  8
Element
  10
4.5775
  20
2.3091
  42
1
  0
VERTEX
  8
Element
  10
4.5725
  20
2.3091
  42
1
  0
SEQEND
  0
POLYLINE
  8
Element
  6
CONTINUOUS
  66
1
  70
0
  40
0.0098
  41
0.0098
  0
VERTEX
  8
Element
  10
4.575
  20
2.3091
  42
0
  0
VERTEX
  8
Element
  10
4.975
  20
2.3091
  42
0
  0
SEQEND
  0
POLYLINE
  8
Element
  6
CONTINUOUS
  66
1
  70
0
  40
0.0049
  41
0.0049
  0
VERTEX
  8
Element
  10
4.5725
  20
2.3091
  42
1
  0
VERTEX
  8
Element
  10
4.5775
  20
2.3091
  42
1
  0
VERTEX
  8
Element
  10
4.5725
  20
2.3091
  42
1
  0
SEQEND
  0
POLYLINE
  8
Element
  6
CONTINUOUS
  66
1
  70
0
  40
0.0049
  41
0.0049
  0
VERTEX
  8
Element
  10
4.9725
  20
2.3091
  42
1
  0
VERTEX
  8
Element
  10
4.9775
  20
2.3091
  42
1
  0
VERTEX
  8
Element
  10
4.9725
  20
2.3091
  42
1
  0
SEQEND
  0
TEXT
  8
Element
  10
2.9
  20
5.0681
  40
0.0547
  41
0.7
  1
100
  50
0.0
  72
1
  73
1
  7
STANDARD
  71
0
  11
2.9
  21
5.0681
  0
TEXT
  8
Element
  10
2.875
  20
3.7681
  40
0.0547
  41
0.7
  1
100
  50
0.0
  72
1
  73
1
  7
STANDARD
  71
0
  11
2.875
  21
3.7681
  0
TEXT
  8
Element
  10
2.75
  20
2.4431
  40
0.0547
  41
0.7
  1
100
  50
0.0
  72
1
  73
1
  7
STANDARD
  71
0
  11
2.75
  21
2.4431
  0
TEXT
  8
Element
  10
2.725
  20
1.2181
  40
0.0547
  41
0.7
  1
100
  50
0.0
  72
1
  73
1
  7
STANDARD
  71
0
  11
2.725
  21
1.2181
  0
TEXT
  8
Element
  10
0.2
  20
4.4431
  40
0.0547
  41
0.7
  1
J1.2
  50
0.0
  72
1
  73
1
  7
STANDARD
  71
0
  11
0.2
  21
4.4431
  0
TEXT
  8
Element
  10
0.2
  20
4.0181
  40
0.0547
  41
0.7
  1
J1.3
  50
0.0
  72
1
  73
1
  7
STANDARD
  71
0
  11
0.2
  21
4.0181
  0
TEXT
  8
Element
  10
0.2
  20
3.5931
  40
0.0547
  41
0.7
  1
J1.4
  50
0.0
  72
1
  73
1
  7
STANDARD
  71
0
  11
0.2
  21
3.5931
  0
TEXT
  8
Element
  10
0.2
  20
3.1431
  40
0.0547
  41
0.7
  1
J1.5
  50
0.0
  72
1
  73
1
  7
STANDARD
  71
0
  11
0.2
  21
3.1431
  0
TEXT
  8
Element
  10
0.225
  20
4.8181
  40
0.0547
  41
0.7
  1
J1.1
  50
0.0
  72
1
  73
1
  7
STANDARD
  71
0
  11
0.225
  21
4.8181
  0
TEXT
  8
Element
  10
0.2
  20
2.6931
  40
0.0547
  41
0.7
  1
J1.6
  50
0.0
  72
1
  73
1
  7
STANDARD
  71
0
  11
0.2
  21
2.6931
  0
TEXT
  8
Element
  10
0.2
  20
2.2681
  40
0.0547
  41
0.7
  1
J1.7
  50
0.0
  72
1
  73
1
  7
STANDARD
  71
0
  11
0.2
  21
2.2681
  0
TEXT
  8
Element
  10
0.2
  20
1.8431
  40
0.0547
  41
0.7
  1
J1.8
  50
0.0
  72
1
  73
1
  7
STANDARD
  71
0
  11
0.2
  21
1.8431
  0
TEXT
  8
Element
  10
0.2
  20
1.4181
  40
0.0547
  41
0.7
  1
J1.9
  50
0.0
  72
1
  73
1
  7
STANDARD
  71
0
  11
0.2
  21
1.4181
  0
TEXT
  8
Element
  10
0.2
  20
0.9931
  40
0.0547
  41
0.7
  1
J1.10
  50
0.0
  72
1
  73
1
  7
STANDARD
  71
0
  11
0.2
  21
0.9931
  0
TEXT
  8
Element
  10
0.2
  20
0.5681
  40
0.0547
  41
0.7
  1
J1.11
  50
0.0
  72
1
  73
1
  7
STANDARD
  71
0
  11
0.2
  21
0.5681
  0
TEXT
  8
Element
  10
0.2
  20
0.1181
  40
0.0547
  41
0.7
  1
J1.12
  50
0.0
  72
1
  73
1
  7
STANDARD
  71
0
  11
0.2
  21
0.1181
  0
TEXT
  8
Element
  10
1.775
  20
4.8431
  40
0.0547
  41
0.7
  1
330
  50
0.0
  72
1
  73
1
  7
STANDARD
  71
0
  11
1.775
  21
4.8431
  0
TEXT
  8
Element
  10
1.75
  20
4.4681
  40
0.0547
  41
0.7
  1
330
  50
0.0
  72
1
  73
1
  7
STANDARD
  71
0
  11
1.75
  21
4.4681
  0
TEXT
  8
Element
  10
1.775
  20
3.5431
  40
0.0547
  41
0.7
  1
330
  50
0.0
  72
1
  73
1
  7
STANDARD
  71
0
  11
1.775
  21
3.5431
  0
TEXT
  8
Element
  10
1.75
  20
3.0431
  40
0.0547
  41
0.7
  1
330
  50
0.0
  72
1
  73
1
  7
STANDARD
  71
0
  11
1.75
  21
3.0431
  0
TEXT
  8
Element
  10
1.75
  20
2.2431
  40
0.0547
  41
0.7
  1
330
  50
0.0
  72
1
  73
1
  7
STANDARD
  71
0
  11
1.75
  21
2.2431
  0
TEXT
  8
Element
  10
1.725
  20
1.8431
  40
0.0547
  41
0.7
  1
330
  50
0.0
  72
1
  73
1
  7
STANDARD
  71
0
  11
1.725
  21
1.8431
  0
TEXT
  8
Element
  10
1.775
  20
0.9931
  40
0.0547
  41
0.7
  1
330
  50
0.0
  72
1
  73
1
  7
STANDARD
  71
0
  11
1.775
  21
0.9931
  0
TEXT
  8
Element
  10
1.775
  20
0.5681
  40
0.0547
  41
0.7
  1
330
  50
0.0
  72
1
  73
1
  7
STANDARD
  71
0
  11
1.775
  21
0.5681
  0
TEXT
  8
Element
  10
4.75
  20
4.6181
  40
0.0547
  41
0.7
  1
J2.2
  50
0.0
  72
1
  73
1
  7
STANDARD
  71
0
  11
4.75
  21
4.6181
  0
TEXT
  8
Element
  10
4.775
  20
4.9681
  40
0.0547
  41
0.7
  1
J2.1
  50
0.0
  72
1
  73
1
  7
STANDARD
  71
0
  11
4.775
  21
4.9681
  0
TEXT
  8
Element
  10
4.8
  20
3.7431
  40
0.0547
  41
0.7
  1
J2.4
  50
0.0
  72
1
  73
1
  7
STANDARD
  71
0
  11
4.8
  21
3.7431
  0
TEXT
  8
Element
  10
4.8
  20
4.1931
  40
0.0547
  41
0.7
  1
J2.3
  50
0.0
  72
1
  73
1
  7
STANDARD
  71
0
  11
4.8
  21
4.1931
  0
TEXT
  8
Element
  10
4.825
  20
2.8681
  40
0.0547
  41
0.7
  1
J2.6
  50
0.0
  72
1
  73
1
  7
STANDARD
  71
0
  11
4.825
  21
2.8681
  0
TEXT
  8
Element
  10
4.8
  20
3.2431
  40
0.0547
  41
0.7
  1
J2.5
  50
0.0
  72
1
  73
1
  7
STANDARD
  71
0
  11
4.8
  21
3.2431
  0
TEXT
  8
Element
  10
4.825
  20
1.9681
  40
0.0547
  41
0.7
  1
J2.8
  50
0.0
  72
1
  73
1
  7
STANDARD
  71
0
  11
4.825
  21
1.9681
  0
TEXT
  8
Element
  10
4.775
  20
2.3181
  40
0.0547
  41
0.7
  1
J2.7
  50
0.0
  72
1
  73
1
  7
STANDARD
  71
0
  11
4.775
  21
2.3181
  0
POLYLINE
  8
Net
  6
CONTINUOUS
  66
1
  70
0
  40
0.0098
  41
0.0098
  0
VERTEX
  8
Net
  10
0.55
  20
3.9591
  42
0
  0
VERTEX
  8
Net
  10
2.075
  20
3.9591
  42
0
  0
SEQEND
  0
POLYLINE
  8
Net
  6
CONTINUOUS
  66
1
  70
0
  40
0.0049
  41
0.0049
  0
VERTEX
  8
Net
  10
0.5475
  20
3.9591
  42
1
  0
VERTEX
  8
Net
  10
0.5525
  20
3.9591
  42
1
  0
VERTEX
  8
Net
  10
0.5475
  20
3.9591
  42
1
  0
SEQEND
  0
POLYLINE
  8
Net
  6
CONTINUOUS
  66
1
  70
0
  40
0.0049
  41
0.0049
  0
VERTEX
  8
Net
  10
2.0725
  20
3.9591
  42
1
  0
VERTEX
  8
Net
  10
2.0775
  20
3.9591
  42
1
  0
VERTEX
  8
Net
  10
2.0725
  20
3.9591
  42
1
  0
SEQEND
  0
POLYLINE
  8
Net
  6
CONTINUOUS
  66
1
  70
0
  40
0.0098
  41
0.0098
  0
VERTEX
  8
Net
  10
2.075
  20
3.9591
  42
0
  0
VERTEX
  8
Net
  10
2.075
  20
3.4841
  42
0
  0
SEQEND
  0
POLYLINE
  8
Net
  6
CONTINUOUS
  66
1
  70
0
  40
0.0049
  41
0.0049
  0
VERTEX
  8
Net
  10
2.0725
  20
3.9591
  42
1
  0
VERTEX
  8
Net
  10
2.0775
  20
3.9591
  42
1
  0
VERTEX
  8
Net
  10
2.0725
  20
3.9591
  42
1
  0
SEQEND
  0
POLYLINE
  8
Net
  6
CONTINUOUS
  66
1
  70
0
  40
0.0049
  41
0.0049
  0
VERTEX
  8
Net
  10
2.0725
  20
3.4841
  42
1
  0
VERTEX
  8
Net
  10
2.0775
  20
3.4841
  42
1
  0
VERTEX
  8
Net
  10
2.0725
  20
3.4841
  42
1
  0
SEQEND
  0
POLYLINE
  8
Net
  6
CONTINUOUS
  66
1
  70
0
  40
0.0098
  41
0.0098
  0
VERTEX
  8
Net
  10
2.0652
  20
3.4841
  42
0
  0
VERTEX
  8
Net
  10
2.0656
  20
3.481
  42
0
  0
VERTEX
  8
Net
  10
2.067
  20
3.4783
  42
0
  0
VERTEX
  8
Net
  10
2.0692
  20
3.4761
  42
0
  0
VERTEX
  8
Net
  10
2.072
  20
3.4747
  42
0
  0
VERTEX
  8
Net
  10
2.075
  20
3.4742
  42
0
  0
VERTEX
  8
Net
  10
2.078
  20
3.4747
  42
0
  0
VERTEX
  8
Net
  10
2.0808
  20
3.4761
  42
0
  0
VERTEX
  8
Net
  10
2.083
  20
3.4783
  42
0
  0
VERTEX
  8
Net
  10
2.0844
  20
3.481
  42
0
  0
VERTEX
  8
Net
  10
2.0848
  20
3.4841
  42
0
  0
VERTEX
  8
Net
  10
2.0844
  20
3.4871
  42
0
  0
VERTEX
  8
Net
  10
2.083
  20
3.4898
  42
0
  0
VERTEX
  8
Net
  10
2.0808
  20
3.492
  42
0
  0
VERTEX
  8
Net
  10
2.078
  20
3.4934
  42
0
  0
VERTEX
  8
Net
  10
2.075
  20
3.4939
  42
0
  0
VERTEX
  8
Net
  10
2.072
  20
3.4934
  42
0
  0
VERTEX
  8
Net
  10
2.0692
  20
3.492
  42
0
  0
VERTEX
  8
Net
  10
2.067
  20
3.4898
  42
0
  0
VERTEX
  8
Net
  10
2.0656
  20
3.4871
  42
0
  0
VERTEX
  8
Net
  10
2.0652
  20
3.4841
  42
0
  0
SEQEND
  0
POLYLINE
  8
Net
  6
CONTINUOUS
  66
1
  70
0
  40
0.0049
  41
0.0049
  0
VERTEX
  8
Net
  10
2.0627
  20
3.4841
  42
1
  0
VERTEX
  8
Net
  10
2.0676
  20
3.4841
  42
1
  0
VERTEX
  8
Net
  10
2.0627
  20
3.4841
  42
1
  0
SEQEND
  0
POLYLINE
  8
Net
  6
CONTINUOUS
  66
1
  70
0
  40
0.0098
  41
0.0098
  0
VERTEX
  8
Net
  10
2.075
  20
3.4841
  42
0
  0
VERTEX
  8
Net
  10
2.05
  20
3.4841
  42
0
  0
SEQEND
  0
POLYLINE
  8
Net
  6
CONTINUOUS
  66
1
  70
0
  40
0.0049
  41
0.0049
  0
VERTEX
  8
Net
  10
2.0725
  20
3.4841
  42
1
  0
VERTEX
  8
Net
  10
2.0775
  20
3.4841
  42
1
  0
VERTEX
  8
Net
  10
2.0725
  20
3.4841
  42
1
  0
SEQEND
  0
POLYLINE
  8
Net
  6
CONTINUOUS
  66
1
  70
0
  40
0.0049
  41
0.0049
  0
VERTEX
  8
Net
  10
2.0475
  20
3.4841
  42
1
  0
VERTEX
  8
Net
  10
2.0525
  20
3.4841
  42
1
  0
VERTEX
  8
Net
  10
2.0475
  20
3.4841
  42
1
  0
SEQEND
  0
POLYLINE
  8
Net
  6
CONTINUOUS
  66
1
  70
0
  40
0.0098
  41
0.0098
  0
VERTEX
  8
Net
  10
2.05
  20
3.4841
  42
0
  0
VERTEX
  8
Net
  10
2.05
  20
2.9841
  42
0
  0
SEQEND
  0
POLYLINE
  8
Net
  6
CONTINUOUS
  66
1
  70
0
  40
0.0049
  41
0.0049
  0
VERTEX
  8
Net
  10
2.0475
  20
3.4841
  42
1
  0
VERTEX
  8
Net
  10
2.0525
  20
3.4841
  42
1
  0
VERTEX
  8
Net
  10
2.0475
  20
3.4841
  42
1
  0
SEQEND
  0
POLYLINE
  8
Net
  6
CONTINUOUS
  66
1
  70
0
  40
0.0049
  41
0.0049
  0
VERTEX
  8
Net
  10
2.0475
  20
2.9841
  42
1
  0
VERTEX
  8
Net
  10
2.0525
  20
2.9841
  42
1
  0
VERTEX
  8
Net
  10
2.0475
  20
2.9841
  42
1
  0
SEQEND
  0
POLYLINE
  8
Net
  6
CONTINUOUS
  66
1
  70
0
  40
0.0098
  41
0.0098
  0
VERTEX
  8
Net
  10
2.0402
  20
2.9841
  42
0
  0
VERTEX
  8
Net
  10
2.0406
  20
2.981
  42
0
  0
VERTEX
  8
Net
  10
2.042
  20
2.9783
  42
0
  0
VERTEX
  8
Net
  10
2.0442
  20
2.9761
  42
0
  0
VERTEX
  8
Net
  10
2.047
  20
2.9747
  42
0
  0
VERTEX
  8
Net
  10
2.05
  20
2.9742
  42
0
  0
VERTEX
  8
Net
  10
2.053
  20
2.9747
  42
0
  0
VERTEX
  8
Net
  10
2.0558
  20
2.9761
  42
0
  0
VERTEX
  8
Net
  10
2.058
  20
2.9783
  42
0
  0
VERTEX
  8
Net
  10
2.0594
  20
2.981
  42
0
  0
VERTEX
  8
Net
  10
2.0598
  20
2.9841
  42
0
  0
VERTEX
  8
Net
  10
2.0594
  20
2.9871
  42
0
  0
VERTEX
  8
Net
  10
2.058
  20
2.9898
  42
0
  0
VERTEX
  8
Net
  10
2.0558
  20
2.992
  42
0
  0
VERTEX
  8
Net
  10
2.053
  20
2.9934
  42
0
  0
VERTEX
  8
Net
  10
2.05
  20
2.9939
  42
0
  0
VERTEX
  8
Net
  10
2.047
  20
2.9934
  42
0
  0
VERTEX
  8
Net
  10
2.0442
  20
2.992
  42
0
  0
VERTEX
  8
Net
  10
2.042
  20
2.9898
  42
0
  0
VERTEX
  8
Net
  10
2.0406
  20
2.9871
  42
0
  0
VERTEX
  8
Net
  10
2.0402
  20
2.9841
  42
0
  0
SEQEND
  0
POLYLINE
  8
Net
  6
CONTINUOUS
  66
1
  70
0
  40
0.0049
  41
0.0049
  0
VERTEX
  8
Net
  10
2.0377
  20
2.9841
  42
1
  0
VERTEX
  8
Net
  10
2.0426
  20
2.9841
  42
1
  0
VERTEX
  8
Net
  10
2.0377
  20
2.9841
  42
1
  0
SEQEND
  0
POLYLINE
  8
Net
  6
CONTINUOUS
  66
1
  70
0
  40
0.0098
  41
0.0098
  0
VERTEX
  8
Net
  10
2.05
  20
2.9841
  42
0
  0
VERTEX
  8
Net
  10
2.05
  20
2.9841
  42
0
  0
SEQEND
  0
POLYLINE
  8
Net
  6
CONTINUOUS
  66
1
  70
0
  40
0.0049
  41
0.0049
  0
VERTEX
  8
Net
  10
2.0475
  20
2.9841
  42
1
  0
VERTEX
  8
Net
  10
2.0525
  20
2.9841
  42
1
  0
VERTEX
  8
Net
  10
2.0475
  20
2.9841
  42
1
  0
SEQEND
  0
POLYLINE
  8
Net
  6
CONTINUOUS
  66
1
  70
0
  40
0.0098
  41
0.0098
  0
VERTEX
  8
Net
  10
2.05
  20
2.9841
  42
0
  0
VERTEX
  8
Net
  10
2.05
  20
2.1841
  42
0
  0
SEQEND
  0
POLYLINE
  8
Net
  6
CONTINUOUS
  66
1
  70
0
  40
0.0049
  41
0.0049
  0
VERTEX
  8
Net
  10
2.0475
  20
2.9841
  42
1
  0
VERTEX
  8
Net
  10
2.0525
  20
2.9841
  42
1
  0
VERTEX
  8
Net
  10
2.0475
  20
2.9841
  42
1
  0
SEQEND
  0
POLYLINE
  8
Net
  6
CONTINUOUS
  66
1
  70
0
  40
0.0049
  41
0.0049
  0
VERTEX
  8
Net
  10
2.0475
  20
2.1841
  42
1
  0
VERTEX
  8
Net
  10
2.0525
  20
2.1841
  42
1
  0
VERTEX
  8
Net
  10
2.0475
  20
2.1841
  42
1
  0
SEQEND
  0
POLYLINE
  8
Net
  6
CONTINUOUS
  66
1
  70
0
  40
0.0098
  41
0.0098
  0
VERTEX
  8
Net
  10
2.0402
  20
2.1841
  42
0
  0
VERTEX
  8
Net
  10
2.0406
  20
2.181
  42
0
  0
VERTEX
  8
Net
  10
2.042
  20
2.1783
  42
0
  0
VERTEX
  8
Net
  10
2.0442
  20
2.1761
  42
0
  0
VERTEX
  8
Net
  10
2.047
  20
2.1747
  42
0
  0
VERTEX
  8
Net
  10
2.05
  20
2.1742
  42
0
  0
VERTEX
  8
Net
  10
2.053
  20
2.1747
  42
0
  0
VERTEX
  8
Net
  10
2.0558
  20
2.1761
  42
0
  0
VERTEX
  8
Net
  10
2.058
  20
2.1783
  42
0
  0
VERTEX
  8
Net
  10
2.0594
  20
2.181
  42
0
  0
VERTEX
  8
Net
  10
2.0598
  20
2.1841
  42
0
  0
VERTEX
  8
Net
  10
2.0594
  20
2.1871
  42
0
  0
VERTEX
  8
Net
  10
2.058
  20
2.1898
  42
0
  0
VERTEX
  8
Net
  10
2.0558
  20
2.192
  42
0
  0
VERTEX
  8
Net
  10
2.053
  20
2.1934
  42
0
  0
VERTEX
  8
Net
  10
2.05
  20
2.1939
  42
0
  0
VERTEX
  8
Net
  10
2.047
  20
2.1934
  42
0
  0
VERTEX
  8
Net
  10
2.0442
  20
2.192
  42
0
  0
VERTEX
  8
Net
  10
2.042
  20
2.1898
  42
0
  0
VERTEX
  8
Net
  10
2.0406
  20
2.1871
  42
0
  0
VERTEX
  8
Net
  10
2.0402
  20
2.1841
  42
0
  0
SEQEND
  0
POLYLINE
  8
Net
  6
CONTINUOUS
  66
1
  70
0
  40
0.0049
  41
0.0049
  0
VERTEX
  8
Net
  10
2.0377
  20
2.1841
  42
1
  0
VERTEX
  8
Net
  10
2.0426
  20
2.1841
  42
1
  0
VERTEX
  8
Net
  10
2.0377
  20
2.1841
  42
1
  0
SEQEND
  0
POLYLINE
  8
Net
  6
CONTINUOUS
  66
1
  70
0
  40
0.0098
  41
0.0098
  0
VERTEX
  8
Net
  10
2.05
  20
2.1841
  42
0
  0
VERTEX
  8
Net
  10
2.025
  20
2.1841
  42
0
  0
SEQEND
  0
POLYLINE
  8
Net
  6
CONTINUOUS
  66
1
  70
0
  40
0.0049
  41
0.0049
  0
VERTEX
  8
Net
  10
2.0475
  20
2.1841
  42
1
  0
VERTEX
  8
Net
  10
2.0525
  20
2.1841
  42
1
  0
VERTEX
  8
Net
  10
2.0475
  20
2.1841
  42
1
  0
SEQEND
  0
POLYLINE
  8
Net
  6
CONTINUOUS
  66
1
  70
0
  40
0.0049
  41
0.0049
  0
VERTEX
  8
Net
  10
2.0225
  20
2.1841
  42
1
  0
VERTEX
  8
Net
  10
2.0275
  20
2.1841
  42
1
  0
VERTEX
  8
Net
  10
2.0225
  20
2.1841
  42
1
  0
SEQEND
  0
POLYLINE
  8
Net
  6
CONTINUOUS
  66
1
  70
0
  40
0.0098
  41
0.0098
  0
VERTEX
  8
Net
  10
2.025
  20
2.1841
  42
0
  0
VERTEX
  8
Net
  10
2.025
  20
1.7841
  42
0
  0
SEQEND
  0
POLYLINE
  8
Net
  6
CONTINUOUS
  66
1
  70
0
  40
0.0049
  41
0.0049
  0
VERTEX
  8
Net
  10
2.0225
  20
2.1841
  42
1
  0
VERTEX
  8
Net
  10
2.0275
  20
2.1841
  42
1
  0
VERTEX
  8
Net
  10
2.0225
  20
2.1841
  42
1
  0
SEQEND
  0
POLYLINE
  8
Net
  6
CONTINUOUS
  66
1
  70
0
  40
0.0049
  41
0.0049
  0
VERTEX
  8
Net
  10
2.0225
  20
1.7841
  42
1
  0
VERTEX
  8
Net
  10
2.0275
  20
1.7841
  42
1
  0
VERTEX
  8
Net
  10
2.0225
  20
1.7841
  42
1
  0
SEQEND
  0
POLYLINE
  8
Net
  6
CONTINUOUS
  66
1
  70
0
  40
0.0098
  41
0.0098
  0
VERTEX
  8
Net
  10
2.0152
  20
1.7841
  42
0
  0
VERTEX
  8
Net
  10
2.0156
  20
1.781
  42
0
  0
VERTEX
  8
Net
  10
2.017
  20
1.7783
  42
0
  0
VERTEX
  8
Net
  10
2.0192
  20
1.7761
  42
0
  0
VERTEX
  8
Net
  10
2.022
  20
1.7747
  42
0
  0
VERTEX
  8
Net
  10
2.025
  20
1.7742
  42
0
  0
VERTEX
  8
Net
  10
2.028
  20
1.7747
  42
0
  0
VERTEX
  8
Net
  10
2.0308
  20
1.7761
  42
0
  0
VERTEX
  8
Net
  10
2.033
  20
1.7783
  42
0
  0
VERTEX
  8
Net
  10
2.0344
  20
1.781
  42
0
  0
VERTEX
  8
Net
  10
2.0348
  20
1.7841
  42
0
  0
VERTEX
  8
Net
  10
2.0344
  20
1.7871
  42
0
  0
VERTEX
  8
Net
  10
2.033
  20
1.7898
  42
0
  0
VERTEX
  8
Net
  10
2.0308
  20
1.792
  42
0
  0
VERTEX
  8
Net
  10
2.028
  20
1.7934
  42
0
  0
VERTEX
  8
Net
  10
2.025
  20
1.7939
  42
0
  0
VERTEX
  8
Net
  10
2.022
  20
1.7934
  42
0
  0
VERTEX
  8
Net
  10
2.0192
  20
1.792
  42
0
  0
VERTEX
  8
Net
  10
2.017
  20
1.7898
  42
0
  0
VERTEX
  8
Net
  10
2.0156
  20
1.7871
  42
0
  0
VERTEX
  8
Net
  10
2.0152
  20
1.7841
  42
0
  0
SEQEND
  0
POLYLINE
  8
Net
  6
CONTINUOUS
  66
1
  70
0
  40
0.0049
  41
0.0049
  0
VERTEX
  8
Net
  10
2.0127
  20
1.7841
  42
1
  0
VERTEX
  8
Net
  10
2.0176
  20
1.7841
  42
1
  0
VERTEX
  8
Net
  10
2.0127
  20
1.7841
  42
1
  0
SEQEND
  0
POLYLINE
  8
Net
  6
CONTINUOUS
  66
1
  70
0
  40
0.0098
  41
0.0098
  0
VERTEX
  8
Net
  10
2.025
  20
1.7841
  42
0
  0
VERTEX
  8
Net
  10
2.075
  20
1.7841
  42
0
  0
SEQEND
  0
POLYLINE
  8
Net
  6
CONTINUOUS
  66
1
  70
0
  40
0.0049
  41
0.0049
  0
VERTEX
  8
Net
  10
2.0225
  20
1.7841
  42
1
  0
VERTEX
  8
Net
  10
2.0275
  20
1.7841
  42
1
  0
VERTEX
  8
Net
  10
2.0225
  20
1.7841
  42
1
  0
SEQEND
  0
POLYLINE
  8
Net
  6
CONTINUOUS
  66
1
  70
0
  40
0.0049
  41
0.0049
  0
VERTEX
  8
Net
  10
2.0725
  20
1.7841
  42
1
  0
VERTEX
  8
Net
  10
2.0775
  20
1.7841
  42
1
  0
VERTEX
  8
Net
  10
2.0725
  20
1.7841
  42
1
  0
SEQEND
  0
POLYLINE
  8
Net
  6
CONTINUOUS
  66
1
  70
0
  40
0.0098
  41
0.0098
  0
VERTEX
  8
Net
  10
2.075
  20
1.7841
  42
0
  0
VERTEX
  8
Net
  10
2.075
  20
0.9341
  42
0
  0
SEQEND
  0
POLYLINE
  8
Net
  6
CONTINUOUS
  66
1
  70
0
  40
0.0049
  41
0.0049
  0
VERTEX
  8
Net
  10
2.0725
  20
1.7841
  42
1
  0
VERTEX
  8
Net
  10
2.0775
  20
1.7841
  42
1
  0
VERTEX
  8
Net
  10
2.0725
  20
1.7841
  42
1
  0
SEQEND
  0
POLYLINE
  8
Net
  6
CONTINUOUS
  66
1
  70
0
  40
0.0049
  41
0.0049
  0
VERTEX
  8
Net
  10
2.0725
  20
0.9341
  42
1
  0
VERTEX
  8
Net
  10
2.0775
  20
0.9341
  42
1
  0
VERTEX
  8
Net
  10
2.0725
  20
0.9341
  42
1
  0
SEQEND
  0
POLYLINE
  8
Net
  6
CONTINUOUS
  66
1
  70
0
  40
0.0098
  41
0.0098
  0
VERTEX
  8
Net
  10
2.0652
  20
0.9341
  42
0
  0
VERTEX
  8
Net
  10
2.0656
  20
0.931
  42
0
  0
VERTEX
  8
Net
  10
2.067
  20
0.9283
  42
0
  0
VERTEX
  8
Net
  10
2.0692
  20
0.9261
  42
0
  0
VERTEX
  8
Net
  10
2.072
  20
0.9247
  42
0
  0
VERTEX
  8
Net
  10
2.075
  20
0.9242
  42
0
  0
VERTEX
  8
Net
  10
2.078
  20
0.9247
  42
0
  0
VERTEX
  8
Net
  10
2.0808
  20
0.9261
  42
0
  0
VERTEX
  8
Net
  10
2.083
  20
0.9283
  42
0
  0
VERTEX
  8
Net
  10
2.0844
  20
0.931
  42
0
  0
VERTEX
  8
Net
  10
2.0848
  20
0.9341
  42
0
  0
VERTEX
  8
Net
  10
2.0844
  20
0.9371
  42
0
  0
VERTEX
  8
Net
  10
2.083
  20
0.9398
  42
0
  0
VERTEX
  8
Net
  10
2.0808
  20
0.942
  42
0
  0
VERTEX
  8
Net
  10
2.078
  20
0.9434
  42
0
  0
VERTEX
  8
Net
  10
2.075
  20
0.9439
  42
0
  0
VERTEX
  8
Net
  10
2.072
  20
0.9434
  42
0
  0
VERTEX
  8
Net
  10
2.0692
  20
0.942
  42
0
  0
VERTEX
  8
Net
  10
2.067
  20
0.9398
  42
0
  0
VERTEX
  8
Net
  10
2.0656
  20
0.9371
  42
0
  0
VERTEX
  8
Net
  10
2.0652
  20
0.9341
  42
0
  0
SEQEND
  0
POLYLINE
  8
Net
  6
CONTINUOUS
  66
1
  70
0
  40
0.0049
  41
0.0049
  0
VERTEX
  8
Net
  10
2.0627
  20
0.9341
  42
1
  0
VERTEX
  8
Net
  10
2.0676
  20
0.9341
  42
1
  0
VERTEX
  8
Net
  10
2.0627
  20
0.9341
  42
1
  0
SEQEND
  0
POLYLINE
  8
Net
  6
CONTINUOUS
  66
1
  70
0
  40
0.0098
  41
0.0098
  0
VERTEX
  8
Net
  10
2.075
  20
0.9341
  42
0
  0
VERTEX
  8
Net
  10
2.075
  20
0.9341
  42
0
  0
SEQEND
  0
POLYLINE
  8
Net
  6
CONTINUOUS
  66
1
  70
0
  40
0.0049
  41
0.0049
  0
VERTEX
  8
Net
  10
2.0725
  20
0.9341
  42
1
  0
VERTEX
  8
Net
  10
2.0775
  20
0.9341
  42
1
  0
VERTEX
  8
Net
  10
2.0725
  20
0.9341
  42
1
  0
SEQEND
  0
POLYLINE
  8
Net
  6
CONTINUOUS
  66
1
  70
0
  40
0.0098
  41
0.0098
  0
VERTEX
  8
Net
  10
2.075
  20
0.9341
  42
0
  0
VERTEX
  8
Net
  10
2.075
  20
0.5091
  42
0
  0
SEQEND
  0
POLYLINE
  8
Net
  6
CONTINUOUS
  66
1
  70
0
  40
0.0049
  41
0.0049
  0
VERTEX
  8
Net
  10
2.0725
  20
0.9341
  42
1
  0
VERTEX
  8
Net
  10
2.0775
  20
0.9341
  42
1
  0
VERTEX
  8
Net
  10
2.0725
  20
0.9341
  42
1
  0
SEQEND
  0
POLYLINE
  8
Net
  6
CONTINUOUS
  66
1
  70
0
  40
0.0049
  41
0.0049
  0
VERTEX
  8
Net
  10
2.0725
  20
0.5091
  42
1
  0
VERTEX
  8
Net
  10
2.0775
  20
0.5091
  42
1
  0
VERTEX
  8
Net
  10
2.0725
  20
0.5091
  42
1
  0
SEQEND
  0
POLYLINE
  8
Net
  6
CONTINUOUS
  66
1
  70
0
  40
0.0098
  41
0.0098
  0
VERTEX
  8
Net
  10
2.075
  20
4.7841
  42
0
  0
VERTEX
  8
Net
  10
2.05
  20
4.7841
  42
0
  0
SEQEND
  0
POLYLINE
  8
Net
  6
CONTINUOUS
  66
1
  70
0
  40
0.0049
  41
0.0049
  0
VERTEX
  8
Net
  10
2.0725
  20
4.7841
  42
1
  0
VERTEX
  8
Net
  10
2.0775
  20
4.7841
  42
1
  0
VERTEX
  8
Net
  10
2.0725
  20
4.7841
  42
1
  0
SEQEND
  0
POLYLINE
  8
Net
  6
CONTINUOUS
  66
1
  70
0
  40
0.0049
  41
0.0049
  0
VERTEX
  8
Net
  10
2.0475
  20
4.7841
  42
1
  0
VERTEX
  8
Net
  10
2.0525
  20
4.7841
  42
1
  0
VERTEX
  8
Net
  10
2.0475
  20
4.7841
  42
1
  0
SEQEND
  0
POLYLINE
  8
Net
  6
CONTINUOUS
  66
1
  70
0
  40
0.0098
  41
0.0098
  0
VERTEX
  8
Net
  10
2.05
  20
4.7841
  42
0
  0
VERTEX
  8
Net
  10
2.05
  20
4.4091
  42
0
  0
SEQEND
  0
POLYLINE
  8
Net
  6
CONTINUOUS
  66
1
  70
0
  40
0.0049
  41
0.0049
  0
VERTEX
  8
Net
  10
2.0475
  20
4.7841
  42
1
  0
VERTEX
  8
Net
  10
2.0525
  20
4.7841
  42
1
  0
VERTEX
  8
Net
  10
2.0475
  20
4.7841
  42
1
  0
SEQEND
  0
POLYLINE
  8
Net
  6
CONTINUOUS
  66
1
  70
0
  40
0.0049
  41
0.0049
  0
VERTEX
  8
Net
  10
2.0475
  20
4.4091
  42
1
  0
VERTEX
  8
Net
  10
2.0525
  20
4.4091
  42
1
  0
VERTEX
  8
Net
  10
2.0475
  20
4.4091
  42
1
  0
SEQEND
  0
POLYLINE
  8
Net
  6
CONTINUOUS
  66
1
  70
0
  40
0.0098
  41
0.0098
  0
VERTEX
  8
Net
  10
2.0402
  20
3.9591
  42
0
  0
VERTEX
  8
Net
  10
2.0406
  20
3.956
  42
0
  0
VERTEX
  8
Net
  10
2.042
  20
3.9533
  42
0
  0
VERTEX
  8
Net
  10
2.0442
  20
3.9511
  42
0
  0
VERTEX
  8
Net
  10
2.047
  20
3.9497
  42
0
  0
VERTEX
  8
Net
  10
2.05
  20
3.9492
  42
0
  0
VERTEX
  8
Net
  10
2.053
  20
3.9497
  42
0
  0
VERTEX
  8
Net
  10
2.0558
  20
3.9511
  42
0
  0
VERTEX
  8
Net
  10
2.058
  20
3.9533
  42
0
  0
VERTEX
  8
Net
  10
2.0594
  20
3.956
  42
0
  0
VERTEX
  8
Net
  10
2.0598
  20
3.9591
  42
0
  0
VERTEX
  8
Net
  10
2.0594
  20
3.9621
  42
0
  0
VERTEX
  8
Net
  10
2.058
  20
3.9648
  42
0
  0
VERTEX
  8
Net
  10
2.0558
  20
3.967
  42
0
  0
VERTEX
  8
Net
  10
2.053
  20
3.9684
  42
0
  0
VERTEX
  8
Net
  10
2.05
  20
3.9689
  42
0
  0
VERTEX
  8
Net
  10
2.047
  20
3.9684
  42
0
  0
VERTEX
  8
Net
  10
2.0442
  20
3.967
  42
0
  0
VERTEX
  8
Net
  10
2.042
  20
3.9648
  42
0
  0
VERTEX
  8
Net
  10
2.0406
  20
3.9621
  42
0
  0
VERTEX
  8
Net
  10
2.0402
  20
3.9591
  42
0
  0
SEQEND
  0
POLYLINE
  8
Net
  6
CONTINUOUS
  66
1
  70
0
  40
0.0049
  41
0.0049
  0
VERTEX
  8
Net
  10
2.0377
  20
3.9591
  42
1
  0
VERTEX
  8
Net
  10
2.0426
  20
3.9591
  42
1
  0
VERTEX
  8
Net
  10
2.0377
  20
3.9591
  42
1
  0
SEQEND
  0
POLYLINE
  8
Net
  6
CONTINUOUS
  66
1
  70
0
  40
0.0098
  41
0.0098
  0
VERTEX
  8
Net
  10
2.0402
  20
4.4091
  42
0
  0
VERTEX
  8
Net
  10
2.0406
  20
4.406
  42
0
  0
VERTEX
  8
Net
  10
2.042
  20
4.4033
  42
0
  0
VERTEX
  8
Net
  10
2.0442
  20
4.4011
  42
0
  0
VERTEX
  8
Net
  10
2.047
  20
4.3997
  42
0
  0
VERTEX
  8
Net
  10
2.05
  20
4.3992
  42
0
  0
VERTEX
  8
Net
  10
2.053
  20
4.3997
  42
0
  0
VERTEX
  8
Net
  10
2.0558
  20
4.4011
  42
0
  0
VERTEX
  8
Net
  10
2.058
  20
4.4033
  42
0
  0
VERTEX
  8
Net
  10
2.0594
  20
4.406
  42
0
  0
VERTEX
  8
Net
  10
2.0598
  20
4.4091
  42
0
  0
VERTEX
  8
Net
  10
2.0594
  20
4.4121
  42
0
  0
VERTEX
  8
Net
  10
2.058
  20
4.4148
  42
0
  0
VERTEX
  8
Net
  10
2.0558
  20
4.417
  42
0
  0
VERTEX
  8
Net
  10
2.053
  20
4.4184
  42
0
  0
VERTEX
  8
Net
  10
2.05
  20
4.4189
  42
0
  0
VERTEX
  8
Net
  10
2.047
  20
4.4184
  42
0
  0
VERTEX
  8
Net
  10
2.0442
  20
4.417
  42
0
  0
VERTEX
  8
Net
  10
2.042
  20
4.4148
  42
0
  0
VERTEX
  8
Net
  10
2.0406
  20
4.4121
  42
0
  0
VERTEX
  8
Net
  10
2.0402
  20
4.4091
  42
0
  0
SEQEND
  0
POLYLINE
  8
Net
  6
CONTINUOUS
  66
1
  70
0
  40
0.0049
  41
0.0049
  0
VERTEX
  8
Net
  10
2.0377
  20
4.4091
  42
1
  0
VERTEX
  8
Net
  10
2.0426
  20
4.4091
  42
1
  0
VERTEX
  8
Net
  10
2.0377
  20
4.4091
  42
1
  0
SEQEND
  0
POLYLINE
  8
Net
  6
CONTINUOUS
  66
1
  70
0
  40
0.0098
  41
0.0098
  0
VERTEX
  8
Net
  10
2.05
  20
3.9591
  42
0
  0
VERTEX
  8
Net
  10
2.05
  20
4.4091
  42
0
  0
SEQEND
  0
POLYLINE
  8
Net
  6
CONTINUOUS
  66
1
  70
0
  40
0.0049
  41
0.0049
  0
VERTEX
  8
Net
  10
2.0475
  20
3.9591
  42
1
  0
VERTEX
  8
Net
  10
2.0525
  20
3.9591
  42
1
  0
VERTEX
  8
Net
  10
2.0475
  20
3.9591
  42
1
  0
SEQEND
  0
POLYLINE
  8
Net
  6
CONTINUOUS
  66
1
  70
0
  40
0.0049
  41
0.0049
  0
VERTEX
  8
Net
  10
2.0475
  20
4.4091
  42
1
  0
VERTEX
  8
Net
  10
2.0525
  20
4.4091
  42
1
  0
VERTEX
  8
Net
  10
2.0475
  20
4.4091
  42
1
  0
SEQEND
  0
POLYLINE
  8
Net
  6
CONTINUOUS
  66
1
  70
0
  40
0.0098
  41
0.0098
  0
VERTEX
  8
Net
  10
2.05
  20
4.4091
  42
0
  0
VERTEX
  8
Net
  10
2.05
  20
4.4091
  42
0
  0
SEQEND
  0
POLYLINE
  8
Net
  6
CONTINUOUS
  66
1
  70
0
  40
0.0049
  41
0.0049
  0
VERTEX
  8
Net
  10
2.0475
  20
4.4091
  42
1
  0
VERTEX
  8
Net
  10
2.0525
  20
4.4091
  42
1
  0
VERTEX
  8
Net
  10
2.0475
  20
4.4091
  42
1
  0
SEQEND
  0
POLYLINE
  8
Net
  6
CONTINUOUS
  66
1
  70
0
  40
0.0098
  41
0.0098
  0
VERTEX
  8
Net
  10
2.0402
  20
2.6341
  42
0
  0
VERTEX
  8
Net
  10
2.0406
  20
2.631
  42
0
  0
VERTEX
  8
Net
  10
2.042
  20
2.6283
  42
0
  0
VERTEX
  8
Net
  10
2.0442
  20
2.6261
  42
0
  0
VERTEX
  8
Net
  10
2.047
  20
2.6247
  42
0
  0
VERTEX
  8
Net
  10
2.05
  20
2.6242
  42
0
  0
VERTEX
  8
Net
  10
2.053
  20
2.6247
  42
0
  0
VERTEX
  8
Net
  10
2.0558
  20
2.6261
  42
0
  0
VERTEX
  8
Net
  10
2.058
  20
2.6283
  42
0
  0
VERTEX
  8
Net
  10
2.0594
  20
2.631
  42
0
  0
VERTEX
  8
Net
  10
2.0598
  20
2.6341
  42
0
  0
VERTEX
  8
Net
  10
2.0594
  20
2.6371
  42
0
  0
VERTEX
  8
Net
  10
2.058
  20
2.6398
  42
0
  0
VERTEX
  8
Net
  10
2.0558
  20
2.642
  42
0
  0
VERTEX
  8
Net
  10
2.053
  20
2.6434
  42
0
  0
VERTEX
  8
Net
  10
2.05
  20
2.6439
  42
0
  0
VERTEX
  8
Net
  10
2.047
  20
2.6434
  42
0
  0
VERTEX
  8
Net
  10
2.0442
  20
2.642
  42
0
  0
VERTEX
  8
Net
  10
2.042
  20
2.6398
  42
0
  0
VERTEX
  8
Net
  10
2.0406
  20
2.6371
  42
0
  0
VERTEX
  8
Net
  10
2.0402
  20
2.6341
  42
0
  0
SEQEND
  0
POLYLINE
  8
Net
  6
CONTINUOUS
  66
1
  70
0
  40
0.0049
  41
0.0049
  0
VERTEX
  8
Net
  10
2.0377
  20
2.6341
  42
1
  0
VERTEX
  8
Net
  10
2.0426
  20
2.6341
  42
1
  0
VERTEX
  8
Net
  10
2.0377
  20
2.6341
  42
1
  0
SEQEND
  0
POLYLINE
  8
Net
  6
CONTINUOUS
  66
1
  70
0
  40
0.0098
  41
0.0098
  0
VERTEX
  8
Net
  10
0.55
  20
2.6341
  42
0
  0
VERTEX
  8
Net
  10
2.05
  20
2.6341
  42
0
  0
SEQEND
  0
POLYLINE
  8
Net
  6
CONTINUOUS
  66
1
  70
0
  40
0.0049
  41
0.0049
  0
VERTEX
  8
Net
  10
0.5475
  20
2.6341
  42
1
  0
VERTEX
  8
Net
  10
0.5525
  20
2.6341
  42
1
  0
VERTEX
  8
Net
  10
0.5475
  20
2.6341
  42
1
  0
SEQEND
  0
POLYLINE
  8
Net
  6
CONTINUOUS
  66
1
  70
0
  40
0.0049
  41
0.0049
  0
VERTEX
  8
Net
  10
2.0475
  20
2.6341
  42
1
  0
VERTEX
  8
Net
  10
2.0525
  20
2.6341
  42
1
  0
VERTEX
  8
Net
  10
2.0475
  20
2.6341
  42
1
  0
SEQEND
  0
POLYLINE
  8
Net
  6
CONTINUOUS
  66
1
  70
0
  40
0.0098
  41
0.0098
  0
VERTEX
  8
Net
  10
2.0652
  20
1.3591
  42
0
  0
VERTEX
  8
Net
  10
2.0656
  20
1.356
  42
0
  0
VERTEX
  8
Net
  10
2.067
  20
1.3533
  42
0
  0
VERTEX
  8
Net
  10
2.0692
  20
1.3511
  42
0
  0
VERTEX
  8
Net
  10
2.072
  20
1.3497
  42
0
  0
VERTEX
  8
Net
  10
2.075
  20
1.3492
  42
0
  0
VERTEX
  8
Net
  10
2.078
  20
1.3497
  42
0
  0
VERTEX
  8
Net
  10
2.0808
  20
1.3511
  42
0
  0
VERTEX
  8
Net
  10
2.083
  20
1.3533
  42
0
  0
VERTEX
  8
Net
  10
2.0844
  20
1.356
  42
0
  0
VERTEX
  8
Net
  10
2.0848
  20
1.3591
  42
0
  0
VERTEX
  8
Net
  10
2.0844
  20
1.3621
  42
0
  0
VERTEX
  8
Net
  10
2.083
  20
1.3648
  42
0
  0
VERTEX
  8
Net
  10
2.0808
  20
1.367
  42
0
  0
VERTEX
  8
Net
  10
2.078
  20
1.3684
  42
0
  0
VERTEX
  8
Net
  10
2.075
  20
1.3689
  42
0
  0
VERTEX
  8
Net
  10
2.072
  20
1.3684
  42
0
  0
VERTEX
  8
Net
  10
2.0692
  20
1.367
  42
0
  0
VERTEX
  8
Net
  10
2.067
  20
1.3648
  42
0
  0
VERTEX
  8
Net
  10
2.0656
  20
1.3621
  42
0
  0
VERTEX
  8
Net
  10
2.0652
  20
1.3591
  42
0
  0
SEQEND
  0
POLYLINE
  8
Net
  6
CONTINUOUS
  66
1
  70
0
  40
0.0049
  41
0.0049
  0
VERTEX
  8
Net
  10
2.0627
  20
1.3591
  42
1
  0
VERTEX
  8
Net
  10
2.0676
  20
1.3591
  42
1
  0
VERTEX
  8
Net
  10
2.0627
  20
1.3591
  42
1
  0
SEQEND
  0
POLYLINE
  8
Net
  6
CONTINUOUS
  66
1
  70
0
  40
0.0098
  41
0.0098
  0
VERTEX
  8
Net
  10
0.55
  20
1.3591
  42
0
  0
VERTEX
  8
Net
  10
2.075
  20
1.3591
  42
0
  0
SEQEND
  0
POLYLINE
  8
Net
  6
CONTINUOUS
  66
1
  70
0
  40
0.0049
  41
0.0049
  0
VERTEX
  8
Net
  10
0.5475
  20
1.3591
  42
1
  0
VERTEX
  8
Net
  10
0.5525
  20
1.3591
  42
1
  0
VERTEX
  8
Net
  10
0.5475
  20
1.3591
  42
1
  0
SEQEND
  0
POLYLINE
  8
Net
  6
CONTINUOUS
  66
1
  70
0
  40
0.0049
  41
0.0049
  0
VERTEX
  8
Net
  10
2.0725
  20
1.3591
  42
1
  0
VERTEX
  8
Net
  10
2.0775
  20
1.3591
  42
1
  0
VERTEX
  8
Net
  10
2.0725
  20
1.3591
  42
1
  0
SEQEND
  0
POLYLINE
  8
Net
  6
CONTINUOUS
  66
1
  70
0
  40
0.0098
  41
0.0098
  0
VERTEX
  8
Net
  10
2.0652
  20
0.5091
  42
0
  0
VERTEX
  8
Net
  10
2.0656
  20
0.506
  42
0
  0
VERTEX
  8
Net
  10
2.067
  20
0.5033
  42
0
  0
VERTEX
  8
Net
  10
2.0692
  20
0.5011
  42
0
  0
VERTEX
  8
Net
  10
2.072
  20
0.4997
  42
0
  0
VERTEX
  8
Net
  10
2.075
  20
0.4992
  42
0
  0
VERTEX
  8
Net
  10
2.078
  20
0.4997
  42
0
  0
VERTEX
  8
Net
  10
2.0808
  20
0.5011
  42
0
  0
VERTEX
  8
Net
  10
2.083
  20
0.5033
  42
0
  0
VERTEX
  8
Net
  10
2.0844
  20
0.506
  42
0
  0
VERTEX
  8
Net
  10
2.0848
  20
0.5091
  42
0
  0
VERTEX
  8
Net
  10
2.0844
  20
0.5121
  42
0
  0
VERTEX
  8
Net
  10
2.083
  20
0.5148
  42
0
  0
VERTEX
  8
Net
  10
2.0808
  20
0.517
  42
0
  0
VERTEX
  8
Net
  10
2.078
  20
0.5184
  42
0
  0
VERTEX
  8
Net
  10
2.075
  20
0.5189
  42
0
  0
VERTEX
  8
Net
  10
2.072
  20
0.5184
  42
0
  0
VERTEX
  8
Net
  10
2.0692
  20
0.517
  42
0
  0
VERTEX
  8
Net
  10
2.067
  20
0.5148
  42
0
  0
VERTEX
  8
Net
  10
2.0656
  20
0.5121
  42
0
  0
VERTEX
  8
Net
  10
2.0652
  20
0.5091
  42
0
  0
SEQEND
  0
POLYLINE
  8
Net
  6
CONTINUOUS
  66
1
  70
0
  40
0.0049
  41
0.0049
  0
VERTEX
  8
Net
  10
2.0627
  20
0.5091
  42
1
  0
VERTEX
  8
Net
  10
2.0676
  20
0.5091
  42
1
  0
VERTEX
  8
Net
  10
2.0627
  20
0.5091
  42
1
  0
SEQEND
  0
POLYLINE
  8
Net
  6
CONTINUOUS
  66
1
  70
0
  40
0.0098
  41
0.0098
  0
VERTEX
  8
Net
  10
0.55
  20
0.0591
  42
0
  0
VERTEX
  8
Net
  10
1.9
  20
0.0591
  42
0
  0
SEQEND
  0
POLYLINE
  8
Net
  6
CONTINUOUS
  66
1
  70
0
  40
0.0049
  41
0.0049
  0
VERTEX
  8
Net
  10
0.5475
  20
0.0591
  42
1
  0
VERTEX
  8
Net
  10
0.5525
  20
0.0591
  42
1
  0
VERTEX
  8
Net
  10
0.5475
  20
0.0591
  42
1
  0
SEQEND
  0
POLYLINE
  8
Net
  6
CONTINUOUS
  66
1
  70
0
  40
0.0049
  41
0.0049
  0
VERTEX
  8
Net
  10
1.8975
  20
0.0591
  42
1
  0
VERTEX
  8
Net
  10
1.9025
  20
0.0591
  42
1
  0
VERTEX
  8
Net
  10
1.8975
  20
0.0591
  42
1
  0
SEQEND
  0
POLYLINE
  8
Net
  6
CONTINUOUS
  66
1
  70
0
  40
0.0098
  41
0.0098
  0
VERTEX
  8
Net
  10
1.9
  20
0.0591
  42
0
  0
VERTEX
  8
Net
  10
1.9
  20
0.5091
  42
0
  0
SEQEND
  0
POLYLINE
  8
Net
  6
CONTINUOUS
  66
1
  70
0
  40
0.0049
  41
0.0049
  0
VERTEX
  8
Net
  10
1.8975
  20
0.0591
  42
1
  0
VERTEX
  8
Net
  10
1.9025
  20
0.0591
  42
1
  0
VERTEX
  8
Net
  10
1.8975
  20
0.0591
  42
1
  0
SEQEND
  0
POLYLINE
  8
Net
  6
CONTINUOUS
  66
1
  70
0
  40
0.0049
  41
0.0049
  0
VERTEX
  8
Net
  10
1.8975
  20
0.5091
  42
1
  0
VERTEX
  8
Net
  10
1.9025
  20
0.5091
  42
1
  0
VERTEX
  8
Net
  10
1.8975
  20
0.5091
  42
1
  0
SEQEND
  0
POLYLINE
  8
Net
  6
CONTINUOUS
  66
1
  70
0
  40
0.0098
  41
0.0098
  0
VERTEX
  8
Net
  10
1.9
  20
0.5091
  42
0
  0
VERTEX
  8
Net
  10
2.075
  20
0.5091
  42
0
  0
SEQEND
  0
POLYLINE
  8
Net
  6
CONTINUOUS
  66
1
  70
0
  40
0.0049
  41
0.0049
  0
VERTEX
  8
Net
  10
1.8975
  20
0.5091
  42
1
  0
VERTEX
  8
Net
  10
1.9025
  20
0.5091
  42
1
  0
VERTEX
  8
Net
  10
1.8975
  20
0.5091
  42
1
  0
SEQEND
  0
POLYLINE
  8
Net
  6
CONTINUOUS
  66
1
  70
0
  40
0.0049
  41
0.0049
  0
VERTEX
  8
Net
  10
2.0725
  20
0.5091
  42
1
  0
VERTEX
  8
Net
  10
2.0775
  20
0.5091
  42
1
  0
VERTEX
  8
Net
  10
2.0725
  20
0.5091
  42
1
  0
SEQEND
  0
POLYLINE
  8
Net
  6
CONTINUOUS
  66
1
  70
0
  40
0.0098
  41
0.0098
  0
VERTEX
  8
Net
  10
1.475
  20
3.4841
  42
0
  0
VERTEX
  8
Net
  10
0.55
  20
3.4841
  42
0
  0
SEQEND
  0
POLYLINE
  8
Net
  6
CONTINUOUS
  66
1
  70
0
  40
0.0049
  41
0.0049
  0
VERTEX
  8
Net
  10
1.4725
  20
3.4841
  42
1
  0
VERTEX
  8
Net
  10
1.4775
  20
3.4841
  42
1
  0
VERTEX
  8
Net
  10
1.4725
  20
3.4841
  42
1
  0
SEQEND
  0
POLYLINE
  8
Net
  6
CONTINUOUS
  66
1
  70
0
  40
0.0049
  41
0.0049
  0
VERTEX
  8
Net
  10
0.5475
  20
3.4841
  42
1
  0
VERTEX
  8
Net
  10
0.5525
  20
3.4841
  42
1
  0
VERTEX
  8
Net
  10
0.5475
  20
3.4841
  42
1
  0
SEQEND
  0
POLYLINE
  8
Net
  6
CONTINUOUS
  66
1
  70
0
  40
0.0098
  41
0.0098
  0
VERTEX
  8
Net
  10
0.55
  20
3.4841
  42
0
  0
VERTEX
  8
Net
  10
0.55
  20
3.5341
  42
0
  0
SEQEND
  0
POLYLINE
  8
Net
  6
CONTINUOUS
  66
1
  70
0
  40
0.0049
  41
0.0049
  0
VERTEX
  8
Net
  10
0.5475
  20
3.4841
  42
1
  0
VERTEX
  8
Net
  10
0.5525
  20
3.4841
  42
1
  0
VERTEX
  8
Net
  10
0.5475
  20
3.4841
  42
1
  0
SEQEND
  0
POLYLINE
  8
Net
  6
CONTINUOUS
  66
1
  70
0
  40
0.0049
  41
0.0049
  0
VERTEX
  8
Net
  10
0.5475
  20
3.5341
  42
1
  0
VERTEX
  8
Net
  10
0.5525
  20
3.5341
  42
1
  0
VERTEX
  8
Net
  10
0.5475
  20
3.5341
  42
1
  0
SEQEND
  0
POLYLINE
  8
Net
  6
CONTINUOUS
  66
1
  70
0
  40
0.0098
  41
0.0098
  0
VERTEX
  8
Net
  10
1.1152
  20
3.4841
  42
0
  0
VERTEX
  8
Net
  10
1.1156
  20
3.481
  42
0
  0
VERTEX
  8
Net
  10
1.117
  20
3.4783
  42
0
  0
VERTEX
  8
Net
  10
1.1192
  20
3.4761
  42
0
  0
VERTEX
  8
Net
  10
1.122
  20
3.4747
  42
0
  0
VERTEX
  8
Net
  10
1.125
  20
3.4742
  42
0
  0
VERTEX
  8
Net
  10
1.128
  20
3.4747
  42
0
  0
VERTEX
  8
Net
  10
1.1308
  20
3.4761
  42
0
  0
VERTEX
  8
Net
  10
1.133
  20
3.4783
  42
0
  0
VERTEX
  8
Net
  10
1.1344
  20
3.481
  42
0
  0
VERTEX
  8
Net
  10
1.1348
  20
3.4841
  42
0
  0
VERTEX
  8
Net
  10
1.1344
  20
3.4871
  42
0
  0
VERTEX
  8
Net
  10
1.133
  20
3.4898
  42
0
  0
VERTEX
  8
Net
  10
1.1308
  20
3.492
  42
0
  0
VERTEX
  8
Net
  10
1.128
  20
3.4934
  42
0
  0
VERTEX
  8
Net
  10
1.125
  20
3.4939
  42
0
  0
VERTEX
  8
Net
  10
1.122
  20
3.4934
  42
0
  0
VERTEX
  8
Net
  10
1.1192
  20
3.492
  42
0
  0
VERTEX
  8
Net
  10
1.117
  20
3.4898
  42
0
  0
VERTEX
  8
Net
  10
1.1156
  20
3.4871
  42
0
  0
VERTEX
  8
Net
  10
1.1152
  20
3.4841
  42
0
  0
SEQEND
  0
POLYLINE
  8
Net
  6
CONTINUOUS
  66
1
  70
0
  40
0.0049
  41
0.0049
  0
VERTEX
  8
Net
  10
1.1127
  20
3.4841
  42
1
  0
VERTEX
  8
Net
  10
1.1176
  20
3.4841
  42
1
  0
VERTEX
  8
Net
  10
1.1127
  20
3.4841
  42
1
  0
SEQEND
  0
POLYLINE
  8
Net
  6
CONTINUOUS
  66
1
  70
0
  40
0.0098
  41
0.0098
  0
VERTEX
  8
Net
  10
2.575
  20
3.7091
  42
0
  0
VERTEX
  8
Net
  10
1.125
  20
3.7091
  42
0
  0
SEQEND
  0
POLYLINE
  8
Net
  6
CONTINUOUS
  66
1
  70
0
  40
0.0049
  41
0.0049
  0
VERTEX
  8
Net
  10
2.5725
  20
3.7091
  42
1
  0
VERTEX
  8
Net
  10
2.5775
  20
3.7091
  42
1
  0
VERTEX
  8
Net
  10
2.5725
  20
3.7091
  42
1
  0
SEQEND
  0
POLYLINE
  8
Net
  6
CONTINUOUS
  66
1
  70
0
  40
0.0049
  41
0.0049
  0
VERTEX
  8
Net
  10
1.1225
  20
3.7091
  42
1
  0
VERTEX
  8
Net
  10
1.1275
  20
3.7091
  42
1
  0
VERTEX
  8
Net
  10
1.1225
  20
3.7091
  42
1
  0
SEQEND
  0
POLYLINE
  8
Net
  6
CONTINUOUS
  66
1
  70
0
  40
0.0098
  41
0.0098
  0
VERTEX
  8
Net
  10
1.125
  20
3.7091
  42
0
  0
VERTEX
  8
Net
  10
1.125
  20
3.4841
  42
0
  0
SEQEND
  0
POLYLINE
  8
Net
  6
CONTINUOUS
  66
1
  70
0
  40
0.0049
  41
0.0049
  0
VERTEX
  8
Net
  10
1.1225
  20
3.7091
  42
1
  0
VERTEX
  8
Net
  10
1.1275
  20
3.7091
  42
1
  0
VERTEX
  8
Net
  10
1.1225
  20
3.7091
  42
1
  0
SEQEND
  0
POLYLINE
  8
Net
  6
CONTINUOUS
  66
1
  70
0
  40
0.0049
  41
0.0049
  0
VERTEX
  8
Net
  10
1.1225
  20
3.4841
  42
1
  0
VERTEX
  8
Net
  10
1.1275
  20
3.4841
  42
1
  0
VERTEX
  8
Net
  10
1.1225
  20
3.4841
  42
1
  0
SEQEND
  0
POLYLINE
  8
Net
  6
CONTINUOUS
  66
1
  70
0
  40
0.0098
  41
0.0098
  0
VERTEX
  8
Net
  10
1.475
  20
4.7841
  42
0
  0
VERTEX
  8
Net
  10
0.575
  20
4.7841
  42
0
  0
SEQEND
  0
POLYLINE
  8
Net
  6
CONTINUOUS
  66
1
  70
0
  40
0.0049
  41
0.0049
  0
VERTEX
  8
Net
  10
1.4725
  20
4.7841
  42
1
  0
VERTEX
  8
Net
  10
1.4775
  20
4.7841
  42
1
  0
VERTEX
  8
Net
  10
1.4725
  20
4.7841
  42
1
  0
SEQEND
  0
POLYLINE
  8
Net
  6
CONTINUOUS
  66
1
  70
0
  40
0.0049
  41
0.0049
  0
VERTEX
  8
Net
  10
0.5725
  20
4.7841
  42
1
  0
VERTEX
  8
Net
  10
0.5775
  20
4.7841
  42
1
  0
VERTEX
  8
Net
  10
0.5725
  20
4.7841
  42
1
  0
SEQEND
  0
POLYLINE
  8
Net
  6
CONTINUOUS
  66
1
  70
0
  40
0.0098
  41
0.0098
  0
VERTEX
  8
Net
  10
0.575
  20
4.7841
  42
0
  0
VERTEX
  8
Net
  10
0.575
  20
4.7591
  42
0
  0
SEQEND
  0
POLYLINE
  8
Net
  6
CONTINUOUS
  66
1
  70
0
  40
0.0049
  41
0.0049
  0
VERTEX
  8
Net
  10
0.5725
  20
4.7841
  42
1
  0
VERTEX
  8
Net
  10
0.5775
  20
4.7841
  42
1
  0
VERTEX
  8
Net
  10
0.5725
  20
4.7841
  42
1
  0
SEQEND
  0
POLYLINE
  8
Net
  6
CONTINUOUS
  66
1
  70
0
  40
0.0049
  41
0.0049
  0
VERTEX
  8
Net
  10
0.5725
  20
4.7591
  42
1
  0
VERTEX
  8
Net
  10
0.5775
  20
4.7591
  42
1
  0
VERTEX
  8
Net
  10
0.5725
  20
4.7591
  42
1
  0
SEQEND
  0
POLYLINE
  8
Net
  6
CONTINUOUS
  66
1
  70
0
  40
0.0098
  41
0.0098
  0
VERTEX
  8
Net
  10
1.0402
  20
4.7841
  42
0
  0
VERTEX
  8
Net
  10
1.0406
  20
4.781
  42
0
  0
VERTEX
  8
Net
  10
1.042
  20
4.7783
  42
0
  0
VERTEX
  8
Net
  10
1.0442
  20
4.7761
  42
0
  0
VERTEX
  8
Net
  10
1.047
  20
4.7747
  42
0
  0
VERTEX
  8
Net
  10
1.05
  20
4.7742
  42
0
  0
VERTEX
  8
Net
  10
1.053
  20
4.7747
  42
0
  0
VERTEX
  8
Net
  10
1.0558
  20
4.7761
  42
0
  0
VERTEX
  8
Net
  10
1.058
  20
4.7783
  42
0
  0
VERTEX
  8
Net
  10
1.0594
  20
4.781
  42
0
  0
VERTEX
  8
Net
  10
1.0598
  20
4.7841
  42
0
  0
VERTEX
  8
Net
  10
1.0594
  20
4.7871
  42
0
  0
VERTEX
  8
Net
  10
1.058
  20
4.7898
  42
0
  0
VERTEX
  8
Net
  10
1.0558
  20
4.792
  42
0
  0
VERTEX
  8
Net
  10
1.053
  20
4.7934
  42
0
  0
VERTEX
  8
Net
  10
1.05
  20
4.7939
  42
0
  0
VERTEX
  8
Net
  10
1.047
  20
4.7934
  42
0
  0
VERTEX
  8
Net
  10
1.0442
  20
4.792
  42
0
  0
VERTEX
  8
Net
  10
1.042
  20
4.7898
  42
0
  0
VERTEX
  8
Net
  10
1.0406
  20
4.7871
  42
0
  0
VERTEX
  8
Net
  10
1.0402
  20
4.7841
  42
0
  0
SEQEND
  0
POLYLINE
  8
Net
  6
CONTINUOUS
  66
1
  70
0
  40
0.0049
  41
0.0049
  0
VERTEX
  8
Net
  10
1.0377
  20
4.7841
  42
1
  0
VERTEX
  8
Net
  10
1.0426
  20
4.7841
  42
1
  0
VERTEX
  8
Net
  10
1.0377
  20
4.7841
  42
1
  0
SEQEND
  0
POLYLINE
  8
Net
  6
CONTINUOUS
  66
1
  70
0
  40
0.0098
  41
0.0098
  0
VERTEX
  8
Net
  10
2.6
  20
5.0091
  42
0
  0
VERTEX
  8
Net
  10
1.05
  20
5.0091
  42
0
  0
SEQEND
  0
POLYLINE
  8
Net
  6
CONTINUOUS
  66
1
  70
0
  40
0.0049
  41
0.0049
  0
VERTEX
  8
Net
  10
2.5975
  20
5.0091
  42
1
  0
VERTEX
  8
Net
  10
2.6025
  20
5.0091
  42
1
  0
VERTEX
  8
Net
  10
2.5975
  20
5.0091
  42
1
  0
SEQEND
  0
POLYLINE
  8
Net
  6
CONTINUOUS
  66
1
  70
0
  40
0.0049
  41
0.0049
  0
VERTEX
  8
Net
  10
1.0475
  20
5.0091
  42
1
  0
VERTEX
  8
Net
  10
1.0525
  20
5.0091
  42
1
  0
VERTEX
  8
Net
  10
1.0475
  20
5.0091
  42
1
  0
SEQEND
  0
POLYLINE
  8
Net
  6
CONTINUOUS
  66
1
  70
0
  40
0.0098
  41
0.0098
  0
VERTEX
  8
Net
  10
1.05
  20
5.0091
  42
0
  0
VERTEX
  8
Net
  10
1.05
  20
4.7841
  42
0
  0
SEQEND
  0
POLYLINE
  8
Net
  6
CONTINUOUS
  66
1
  70
0
  40
0.0049
  41
0.0049
  0
VERTEX
  8
Net
  10
1.0475
  20
5.0091
  42
1
  0
VERTEX
  8
Net
  10
1.0525
  20
5.0091
  42
1
  0
VERTEX
  8
Net
  10
1.0475
  20
5.0091
  42
1
  0
SEQEND
  0
POLYLINE
  8
Net
  6
CONTINUOUS
  66
1
  70
0
  40
0.0049
  41
0.0049
  0
VERTEX
  8
Net
  10
1.0475
  20
4.7841
  42
1
  0
VERTEX
  8
Net
  10
1.0525
  20
4.7841
  42
1
  0
VERTEX
  8
Net
  10
1.0475
  20
4.7841
  42
1
  0
SEQEND
  0
POLYLINE
  8
Net
  6
CONTINUOUS
  66
1
  70
0
  40
0.0098
  41
0.0098
  0
VERTEX
  8
Net
  10
1.45
  20
4.4091
  42
0
  0
VERTEX
  8
Net
  10
0.55
  20
4.4091
  42
0
  0
SEQEND
  0
POLYLINE
  8
Net
  6
CONTINUOUS
  66
1
  70
0
  40
0.0049
  41
0.0049
  0
VERTEX
  8
Net
  10
1.4475
  20
4.4091
  42
1
  0
VERTEX
  8
Net
  10
1.4525
  20
4.4091
  42
1
  0
VERTEX
  8
Net
  10
1.4475
  20
4.4091
  42
1
  0
SEQEND
  0
POLYLINE
  8
Net
  6
CONTINUOUS
  66
1
  70
0
  40
0.0049
  41
0.0049
  0
VERTEX
  8
Net
  10
0.5475
  20
4.4091
  42
1
  0
VERTEX
  8
Net
  10
0.5525
  20
4.4091
  42
1
  0
VERTEX
  8
Net
  10
0.5475
  20
4.4091
  42
1
  0
SEQEND
  0
POLYLINE
  8
Net
  6
CONTINUOUS
  66
1
  70
0
  40
0.0098
  41
0.0098
  0
VERTEX
  8
Net
  10
0.55
  20
4.4091
  42
0
  0
VERTEX
  8
Net
  10
0.55
  20
4.3841
  42
0
  0
SEQEND
  0
POLYLINE
  8
Net
  6
CONTINUOUS
  66
1
  70
0
  40
0.0049
  41
0.0049
  0
VERTEX
  8
Net
  10
0.5475
  20
4.4091
  42
1
  0
VERTEX
  8
Net
  10
0.5525
  20
4.4091
  42
1
  0
VERTEX
  8
Net
  10
0.5475
  20
4.4091
  42
1
  0
SEQEND
  0
POLYLINE
  8
Net
  6
CONTINUOUS
  66
1
  70
0
  40
0.0049
  41
0.0049
  0
VERTEX
  8
Net
  10
0.5475
  20
4.3841
  42
1
  0
VERTEX
  8
Net
  10
0.5525
  20
4.3841
  42
1
  0
VERTEX
  8
Net
  10
0.5475
  20
4.3841
  42
1
  0
SEQEND
  0
POLYLINE
  8
Net
  6
CONTINUOUS
  66
1
  70
0
  40
0.0098
  41
0.0098
  0
VERTEX
  8
Net
  10
1.1402
  20
4.4091
  42
0
  0
VERTEX
  8
Net
  10
1.1406
  20
4.406
  42
0
  0
VERTEX
  8
Net
  10
1.142
  20
4.4033
  42
0
  0
VERTEX
  8
Net
  10
1.1442
  20
4.4011
  42
0
  0
VERTEX
  8
Net
  10
1.147
  20
4.3997
  42
0
  0
VERTEX
  8
Net
  10
1.15
  20
4.3992
  42
0
  0
VERTEX
  8
Net
  10
1.153
  20
4.3997
  42
0
  0
VERTEX
  8
Net
  10
1.1558
  20
4.4011
  42
0
  0
VERTEX
  8
Net
  10
1.158
  20
4.4033
  42
0
  0
VERTEX
  8
Net
  10
1.1594
  20
4.406
  42
0
  0
VERTEX
  8
Net
  10
1.1598
  20
4.4091
  42
0
  0
VERTEX
  8
Net
  10
1.1594
  20
4.4121
  42
0
  0
VERTEX
  8
Net
  10
1.158
  20
4.4148
  42
0
  0
VERTEX
  8
Net
  10
1.1558
  20
4.417
  42
0
  0
VERTEX
  8
Net
  10
1.153
  20
4.4184
  42
0
  0
VERTEX
  8
Net
  10
1.15
  20
4.4189
  42
0
  0
VERTEX
  8
Net
  10
1.147
  20
4.4184
  42
0
  0
VERTEX
  8
Net
  10
1.1442
  20
4.417
  42
0
  0
VERTEX
  8
Net
  10
1.142
  20
4.4148
  42
0
  0
VERTEX
  8
Net
  10
1.1406
  20
4.4121
  42
0
  0
VERTEX
  8
Net
  10
1.1402
  20
4.4091
  42
0
  0
SEQEND
  0
POLYLINE
  8
Net
  6
CONTINUOUS
  66
1
  70
0
  40
0.0049
  41
0.0049
  0
VERTEX
  8
Net
  10
1.1377
  20
4.4091
  42
1
  0
VERTEX
  8
Net
  10
1.1426
  20
4.4091
  42
1
  0
VERTEX
  8
Net
  10
1.1377
  20
4.4091
  42
1
  0
SEQEND
  0
POLYLINE
  8
Net
  6
CONTINUOUS
  66
1
  70
0
  40
0.0098
  41
0.0098
  0
VERTEX
  8
Net
  10
4.4
  20
4.5591
  42
0
  0
VERTEX
  8
Net
  10
1.15
  20
4.5591
  42
0
  0
SEQEND
  0
POLYLINE
  8
Net
  6
CONTINUOUS
  66
1
  70
0
  40
0.0049
  41
0.0049
  0
VERTEX
  8
Net
  10
4.3975
  20
4.5591
  42
1
  0
VERTEX
  8
Net
  10
4.4025
  20
4.5591
  42
1
  0
VERTEX
  8
Net
  10
4.3975
  20
4.5591
  42
1
  0
SEQEND
  0
POLYLINE
  8
Net
  6
CONTINUOUS
  66
1
  70
0
  40
0.0049
  41
0.0049
  0
VERTEX
  8
Net
  10
1.1475
  20
4.5591
  42
1
  0
VERTEX
  8
Net
  10
1.1525
  20
4.5591
  42
1
  0
VERTEX
  8
Net
  10
1.1475
  20
4.5591
  42
1
  0
SEQEND
  0
POLYLINE
  8
Net
  6
CONTINUOUS
  66
1
  70
0
  40
0.0098
  41
0.0098
  0
VERTEX
  8
Net
  10
1.15
  20
4.5591
  42
0
  0
VERTEX
  8
Net
  10
1.15
  20
4.4091
  42
0
  0
SEQEND
  0
POLYLINE
  8
Net
  6
CONTINUOUS
  66
1
  70
0
  40
0.0049
  41
0.0049
  0
VERTEX
  8
Net
  10
1.1475
  20
4.5591
  42
1
  0
VERTEX
  8
Net
  10
1.1525
  20
4.5591
  42
1
  0
VERTEX
  8
Net
  10
1.1475
  20
4.5591
  42
1
  0
SEQEND
  0
POLYLINE
  8
Net
  6
CONTINUOUS
  66
1
  70
0
  40
0.0049
  41
0.0049
  0
VERTEX
  8
Net
  10
1.1475
  20
4.4091
  42
1
  0
VERTEX
  8
Net
  10
1.1525
  20
4.4091
  42
1
  0
VERTEX
  8
Net
  10
1.1475
  20
4.4091
  42
1
  0
SEQEND
  0
POLYLINE
  8
Net
  6
CONTINUOUS
  66
1
  70
0
  40
0.0098
  41
0.0098
  0
VERTEX
  8
Net
  10
1.45
  20
2.9841
  42
0
  0
VERTEX
  8
Net
  10
0.55
  20
2.9841
  42
0
  0
SEQEND
  0
POLYLINE
  8
Net
  6
CONTINUOUS
  66
1
  70
0
  40
0.0049
  41
0.0049
  0
VERTEX
  8
Net
  10
1.4475
  20
2.9841
  42
1
  0
VERTEX
  8
Net
  10
1.4525
  20
2.9841
  42
1
  0
VERTEX
  8
Net
  10
1.4475
  20
2.9841
  42
1
  0
SEQEND
  0
POLYLINE
  8
Net
  6
CONTINUOUS
  66
1
  70
0
  40
0.0049
  41
0.0049
  0
VERTEX
  8
Net
  10
0.5475
  20
2.9841
  42
1
  0
VERTEX
  8
Net
  10
0.5525
  20
2.9841
  42
1
  0
VERTEX
  8
Net
  10
0.5475
  20
2.9841
  42
1
  0
SEQEND
  0
POLYLINE
  8
Net
  6
CONTINUOUS
  66
1
  70
0
  40
0.0098
  41
0.0098
  0
VERTEX
  8
Net
  10
0.55
  20
2.9841
  42
0
  0
VERTEX
  8
Net
  10
0.55
  20
3.0841
  42
0
  0
SEQEND
  0
POLYLINE
  8
Net
  6
CONTINUOUS
  66
1
  70
0
  40
0.0049
  41
0.0049
  0
VERTEX
  8
Net
  10
0.5475
  20
2.9841
  42
1
  0
VERTEX
  8
Net
  10
0.5525
  20
2.9841
  42
1
  0
VERTEX
  8
Net
  10
0.5475
  20
2.9841
  42
1
  0
SEQEND
  0
POLYLINE
  8
Net
  6
CONTINUOUS
  66
1
  70
0
  40
0.0049
  41
0.0049
  0
VERTEX
  8
Net
  10
0.5475
  20
3.0841
  42
1
  0
VERTEX
  8
Net
  10
0.5525
  20
3.0841
  42
1
  0
VERTEX
  8
Net
  10
0.5475
  20
3.0841
  42
1
  0
SEQEND
  0
POLYLINE
  8
Net
  6
CONTINUOUS
  66
1
  70
0
  40
0.0098
  41
0.0098
  0
VERTEX
  8
Net
  10
1.4402
  20
2.9841
  42
0
  0
VERTEX
  8
Net
  10
1.4406
  20
2.981
  42
0
  0
VERTEX
  8
Net
  10
1.442
  20
2.9783
  42
0
  0
VERTEX
  8
Net
  10
1.4442
  20
2.9761
  42
0
  0
VERTEX
  8
Net
  10
1.447
  20
2.9747
  42
0
  0
VERTEX
  8
Net
  10
1.45
  20
2.9742
  42
0
  0
VERTEX
  8
Net
  10
1.453
  20
2.9747
  42
0
  0
VERTEX
  8
Net
  10
1.4558
  20
2.9761
  42
0
  0
VERTEX
  8
Net
  10
1.458
  20
2.9783
  42
0
  0
VERTEX
  8
Net
  10
1.4594
  20
2.981
  42
0
  0
VERTEX
  8
Net
  10
1.4598
  20
2.9841
  42
0
  0
VERTEX
  8
Net
  10
1.4594
  20
2.9871
  42
0
  0
VERTEX
  8
Net
  10
1.458
  20
2.9898
  42
0
  0
VERTEX
  8
Net
  10
1.4558
  20
2.992
  42
0
  0
VERTEX
  8
Net
  10
1.453
  20
2.9934
  42
0
  0
VERTEX
  8
Net
  10
1.45
  20
2.9939
  42
0
  0
VERTEX
  8
Net
  10
1.447
  20
2.9934
  42
0
  0
VERTEX
  8
Net
  10
1.4442
  20
2.992
  42
0
  0
VERTEX
  8
Net
  10
1.442
  20
2.9898
  42
0
  0
VERTEX
  8
Net
  10
1.4406
  20
2.9871
  42
0
  0
VERTEX
  8
Net
  10
1.4402
  20
2.9841
  42
0
  0
SEQEND
  0
POLYLINE
  8
Net
  6
CONTINUOUS
  66
1
  70
0
  40
0.0049
  41
0.0049
  0
VERTEX
  8
Net
  10
1.4377
  20
2.9841
  42
1
  0
VERTEX
  8
Net
  10
1.4426
  20
2.9841
  42
1
  0
VERTEX
  8
Net
  10
1.4377
  20
2.9841
  42
1
  0
SEQEND
  0
POLYLINE
  8
Net
  6
CONTINUOUS
  66
1
  70
0
  40
0.0098
  41
0.0098
  0
VERTEX
  8
Net
  10
4.45
  20
3.6841
  42
0
  0
VERTEX
  8
Net
  10
4.45
  20
3.3841
  42
0
  0
SEQEND
  0
POLYLINE
  8
Net
  6
CONTINUOUS
  66
1
  70
0
  40
0.0049
  41
0.0049
  0
VERTEX
  8
Net
  10
4.4475
  20
3.6841
  42
1
  0
VERTEX
  8
Net
  10
4.4525
  20
3.6841
  42
1
  0
VERTEX
  8
Net
  10
4.4475
  20
3.6841
  42
1
  0
SEQEND
  0
POLYLINE
  8
Net
  6
CONTINUOUS
  66
1
  70
0
  40
0.0049
  41
0.0049
  0
VERTEX
  8
Net
  10
4.4475
  20
3.3841
  42
1
  0
VERTEX
  8
Net
  10
4.4525
  20
3.3841
  42
1
  0
VERTEX
  8
Net
  10
4.4475
  20
3.3841
  42
1
  0
SEQEND
  0
POLYLINE
  8
Net
  6
CONTINUOUS
  66
1
  70
0
  40
0.0098
  41
0.0098
  0
VERTEX
  8
Net
  10
4.45
  20
3.3841
  42
0
  0
VERTEX
  8
Net
  10
1.45
  20
3.3841
  42
0
  0
SEQEND
  0
POLYLINE
  8
Net
  6
CONTINUOUS
  66
1
  70
0
  40
0.0049
  41
0.0049
  0
VERTEX
  8
Net
  10
4.4475
  20
3.3841
  42
1
  0
VERTEX
  8
Net
  10
4.4525
  20
3.3841
  42
1
  0
VERTEX
  8
Net
  10
4.4475
  20
3.3841
  42
1
  0
SEQEND
  0
POLYLINE
  8
Net
  6
CONTINUOUS
  66
1
  70
0
  40
0.0049
  41
0.0049
  0
VERTEX
  8
Net
  10
1.4475
  20
3.3841
  42
1
  0
VERTEX
  8
Net
  10
1.4525
  20
3.3841
  42
1
  0
VERTEX
  8
Net
  10
1.4475
  20
3.3841
  42
1
  0
SEQEND
  0
POLYLINE
  8
Net
  6
CONTINUOUS
  66
1
  70
0
  40
0.0098
  41
0.0098
  0
VERTEX
  8
Net
  10
1.45
  20
3.3841
  42
0
  0
VERTEX
  8
Net
  10
1.45
  20
2.9841
  42
0
  0
SEQEND
  0
POLYLINE
  8
Net
  6
CONTINUOUS
  66
1
  70
0
  40
0.0049
  41
0.0049
  0
VERTEX
  8
Net
  10
1.4475
  20
3.3841
  42
1
  0
VERTEX
  8
Net
  10
1.4525
  20
3.3841
  42
1
  0
VERTEX
  8
Net
  10
1.4475
  20
3.3841
  42
1
  0
SEQEND
  0
POLYLINE
  8
Net
  6
CONTINUOUS
  66
1
  70
0
  40
0.0049
  41
0.0049
  0
VERTEX
  8
Net
  10
1.4475
  20
2.9841
  42
1
  0
VERTEX
  8
Net
  10
1.4525
  20
2.9841
  42
1
  0
VERTEX
  8
Net
  10
1.4475
  20
2.9841
  42
1
  0
SEQEND
  0
POLYLINE
  8
Net
  6
CONTINUOUS
  66
1
  70
0
  40
0.0098
  41
0.0098
  0
VERTEX
  8
Net
  10
1.45
  20
2.1841
  42
0
  0
VERTEX
  8
Net
  10
0.55
  20
2.1841
  42
0
  0
SEQEND
  0
POLYLINE
  8
Net
  6
CONTINUOUS
  66
1
  70
0
  40
0.0049
  41
0.0049
  0
VERTEX
  8
Net
  10
1.4475
  20
2.1841
  42
1
  0
VERTEX
  8
Net
  10
1.4525
  20
2.1841
  42
1
  0
VERTEX
  8
Net
  10
1.4475
  20
2.1841
  42
1
  0
SEQEND
  0
POLYLINE
  8
Net
  6
CONTINUOUS
  66
1
  70
0
  40
0.0049
  41
0.0049
  0
VERTEX
  8
Net
  10
0.5475
  20
2.1841
  42
1
  0
VERTEX
  8
Net
  10
0.5525
  20
2.1841
  42
1
  0
VERTEX
  8
Net
  10
0.5475
  20
2.1841
  42
1
  0
SEQEND
  0
POLYLINE
  8
Net
  6
CONTINUOUS
  66
1
  70
0
  40
0.0098
  41
0.0098
  0
VERTEX
  8
Net
  10
0.55
  20
2.1841
  42
0
  0
VERTEX
  8
Net
  10
0.55
  20
2.2091
  42
0
  0
SEQEND
  0
POLYLINE
  8
Net
  6
CONTINUOUS
  66
1
  70
0
  40
0.0049
  41
0.0049
  0
VERTEX
  8
Net
  10
0.5475
  20
2.1841
  42
1
  0
VERTEX
  8
Net
  10
0.5525
  20
2.1841
  42
1
  0
VERTEX
  8
Net
  10
0.5475
  20
2.1841
  42
1
  0
SEQEND
  0
POLYLINE
  8
Net
  6
CONTINUOUS
  66
1
  70
0
  40
0.0049
  41
0.0049
  0
VERTEX
  8
Net
  10
0.5475
  20
2.2091
  42
1
  0
VERTEX
  8
Net
  10
0.5525
  20
2.2091
  42
1
  0
VERTEX
  8
Net
  10
0.5475
  20
2.2091
  42
1
  0
SEQEND
  0
POLYLINE
  8
Net
  6
CONTINUOUS
  66
1
  70
0
  40
0.0098
  41
0.0098
  0
VERTEX
  8
Net
  10
0.9902
  20
2.1841
  42
0
  0
VERTEX
  8
Net
  10
0.9906
  20
2.181
  42
0
  0
VERTEX
  8
Net
  10
0.992
  20
2.1783
  42
0
  0
VERTEX
  8
Net
  10
0.9942
  20
2.1761
  42
0
  0
VERTEX
  8
Net
  10
0.997
  20
2.1747
  42
0
  0
VERTEX
  8
Net
  10
1.0
  20
2.1742
  42
0
  0
VERTEX
  8
Net
  10
1.003
  20
2.1747
  42
0
  0
VERTEX
  8
Net
  10
1.0058
  20
2.1761
  42
0
  0
VERTEX
  8
Net
  10
1.008
  20
2.1783
  42
0
  0
VERTEX
  8
Net
  10
1.0094
  20
2.181
  42
0
  0
VERTEX
  8
Net
  10
1.0098
  20
2.1841
  42
0
  0
VERTEX
  8
Net
  10
1.0094
  20
2.1871
  42
0
  0
VERTEX
  8
Net
  10
1.008
  20
2.1898
  42
0
  0
VERTEX
  8
Net
  10
1.0058
  20
2.192
  42
0
  0
VERTEX
  8
Net
  10
1.003
  20
2.1934
  42
0
  0
VERTEX
  8
Net
  10
1.0
  20
2.1939
  42
0
  0
VERTEX
  8
Net
  10
0.997
  20
2.1934
  42
0
  0
VERTEX
  8
Net
  10
0.9942
  20
2.192
  42
0
  0
VERTEX
  8
Net
  10
0.992
  20
2.1898
  42
0
  0
VERTEX
  8
Net
  10
0.9906
  20
2.1871
  42
0
  0
VERTEX
  8
Net
  10
0.9902
  20
2.1841
  42
0
  0
SEQEND
  0
POLYLINE
  8
Net
  6
CONTINUOUS
  66
1
  70
0
  40
0.0049
  41
0.0049
  0
VERTEX
  8
Net
  10
0.9877
  20
2.1841
  42
1
  0
VERTEX
  8
Net
  10
0.9926
  20
2.1841
  42
1
  0
VERTEX
  8
Net
  10
0.9877
  20
2.1841
  42
1
  0
SEQEND
  0
POLYLINE
  8
Net
  6
CONTINUOUS
  66
1
  70
0
  40
0.0098
  41
0.0098
  0
VERTEX
  8
Net
  10
2.45
  20
2.3841
  42
0
  0
VERTEX
  8
Net
  10
1.0
  20
2.3841
  42
0
  0
SEQEND
  0
POLYLINE
  8
Net
  6
CONTINUOUS
  66
1
  70
0
  40
0.0049
  41
0.0049
  0
VERTEX
  8
Net
  10
2.4475
  20
2.3841
  42
1
  0
VERTEX
  8
Net
  10
2.4525
  20
2.3841
  42
1
  0
VERTEX
  8
Net
  10
2.4475
  20
2.3841
  42
1
  0
SEQEND
  0
POLYLINE
  8
Net
  6
CONTINUOUS
  66
1
  70
0
  40
0.0049
  41
0.0049
  0
VERTEX
  8
Net
  10
0.9975
  20
2.3841
  42
1
  0
VERTEX
  8
Net
  10
1.0025
  20
2.3841
  42
1
  0
VERTEX
  8
Net
  10
0.9975
  20
2.3841
  42
1
  0
SEQEND
  0
POLYLINE
  8
Net
  6
CONTINUOUS
  66
1
  70
0
  40
0.0098
  41
0.0098
  0
VERTEX
  8
Net
  10
1.0
  20
2.3841
  42
0
  0
VERTEX
  8
Net
  10
1.0
  20
2.1841
  42
0
  0
SEQEND
  0
POLYLINE
  8
Net
  6
CONTINUOUS
  66
1
  70
0
  40
0.0049
  41
0.0049
  0
VERTEX
  8
Net
  10
0.9975
  20
2.3841
  42
1
  0
VERTEX
  8
Net
  10
1.0025
  20
2.3841
  42
1
  0
VERTEX
  8
Net
  10
0.9975
  20
2.3841
  42
1
  0
SEQEND
  0
POLYLINE
  8
Net
  6
CONTINUOUS
  66
1
  70
0
  40
0.0049
  41
0.0049
  0
VERTEX
  8
Net
  10
0.9975
  20
2.1841
  42
1
  0
VERTEX
  8
Net
  10
1.0025
  20
2.1841
  42
1
  0
VERTEX
  8
Net
  10
0.9975
  20
2.1841
  42
1
  0
SEQEND
  0
POLYLINE
  8
Net
  6
CONTINUOUS
  66
1
  70
0
  40
0.0098
  41
0.0098
  0
VERTEX
  8
Net
  10
1.425
  20
1.7841
  42
0
  0
VERTEX
  8
Net
  10
0.55
  20
1.7841
  42
0
  0
SEQEND
  0
POLYLINE
  8
Net
  6
CONTINUOUS
  66
1
  70
0
  40
0.0049
  41
0.0049
  0
VERTEX
  8
Net
  10
1.4225
  20
1.7841
  42
1
  0
VERTEX
  8
Net
  10
1.4275
  20
1.7841
  42
1
  0
VERTEX
  8
Net
  10
1.4225
  20
1.7841
  42
1
  0
SEQEND
  0
POLYLINE
  8
Net
  6
CONTINUOUS
  66
1
  70
0
  40
0.0049
  41
0.0049
  0
VERTEX
  8
Net
  10
0.5475
  20
1.7841
  42
1
  0
VERTEX
  8
Net
  10
0.5525
  20
1.7841
  42
1
  0
VERTEX
  8
Net
  10
0.5475
  20
1.7841
  42
1
  0
SEQEND
  0
POLYLINE
  8
Net
  6
CONTINUOUS
  66
1
  70
0
  40
0.0098
  41
0.0098
  0
VERTEX
  8
Net
  10
1.3152
  20
1.7841
  42
0
  0
VERTEX
  8
Net
  10
1.3156
  20
1.781
  42
0
  0
VERTEX
  8
Net
  10
1.317
  20
1.7783
  42
0
  0
VERTEX
  8
Net
  10
1.3192
  20
1.7761
  42
0
  0
VERTEX
  8
Net
  10
1.322
  20
1.7747
  42
0
  0
VERTEX
  8
Net
  10
1.325
  20
1.7742
  42
0
  0
VERTEX
  8
Net
  10
1.328
  20
1.7747
  42
0
  0
VERTEX
  8
Net
  10
1.3308
  20
1.7761
  42
0
  0
VERTEX
  8
Net
  10
1.333
  20
1.7783
  42
0
  0
VERTEX
  8
Net
  10
1.3344
  20
1.781
  42
0
  0
VERTEX
  8
Net
  10
1.3348
  20
1.7841
  42
0
  0
VERTEX
  8
Net
  10
1.3344
  20
1.7871
  42
0
  0
VERTEX
  8
Net
  10
1.333
  20
1.7898
  42
0
  0
VERTEX
  8
Net
  10
1.3308
  20
1.792
  42
0
  0
VERTEX
  8
Net
  10
1.328
  20
1.7934
  42
0
  0
VERTEX
  8
Net
  10
1.325
  20
1.7939
  42
0
  0
VERTEX
  8
Net
  10
1.322
  20
1.7934
  42
0
  0
VERTEX
  8
Net
  10
1.3192
  20
1.792
  42
0
  0
VERTEX
  8
Net
  10
1.317
  20
1.7898
  42
0
  0
VERTEX
  8
Net
  10
1.3156
  20
1.7871
  42
0
  0
VERTEX
  8
Net
  10
1.3152
  20
1.7841
  42
0
  0
SEQEND
  0
POLYLINE
  8
Net
  6
CONTINUOUS
  66
1
  70
0
  40
0.0049
  41
0.0049
  0
VERTEX
  8
Net
  10
1.3127
  20
1.7841
  42
1
  0
VERTEX
  8
Net
  10
1.3176
  20
1.7841
  42
1
  0
VERTEX
  8
Net
  10
1.3127
  20
1.7841
  42
1
  0
SEQEND
  0
POLYLINE
  8
Net
  6
CONTINUOUS
  66
1
  70
0
  40
0.0098
  41
0.0098
  0
VERTEX
  8
Net
  10
4.475
  20
2.8091
  42
0
  0
VERTEX
  8
Net
  10
3.4
  20
2.8091
  42
0
  0
SEQEND
  0
POLYLINE
  8
Net
  6
CONTINUOUS
  66
1
  70
0
  40
0.0049
  41
0.0049
  0
VERTEX
  8
Net
  10
4.4725
  20
2.8091
  42
1
  0
VERTEX
  8
Net
  10
4.4775
  20
2.8091
  42
1
  0
VERTEX
  8
Net
  10
4.4725
  20
2.8091
  42
1
  0
SEQEND
  0
POLYLINE
  8
Net
  6
CONTINUOUS
  66
1
  70
0
  40
0.0049
  41
0.0049
  0
VERTEX
  8
Net
  10
3.3975
  20
2.8091
  42
1
  0
VERTEX
  8
Net
  10
3.4025
  20
2.8091
  42
1
  0
VERTEX
  8
Net
  10
3.3975
  20
2.8091
  42
1
  0
SEQEND
  0
POLYLINE
  8
Net
  6
CONTINUOUS
  66
1
  70
0
  40
0.0098
  41
0.0098
  0
VERTEX
  8
Net
  10
3.4
  20
2.8091
  42
0
  0
VERTEX
  8
Net
  10
3.4
  20
2.1091
  42
0
  0
SEQEND
  0
POLYLINE
  8
Net
  6
CONTINUOUS
  66
1
  70
0
  40
0.0049
  41
0.0049
  0
VERTEX
  8
Net
  10
3.3975
  20
2.8091
  42
1
  0
VERTEX
  8
Net
  10
3.4025
  20
2.8091
  42
1
  0
VERTEX
  8
Net
  10
3.3975
  20
2.8091
  42
1
  0
SEQEND
  0
POLYLINE
  8
Net
  6
CONTINUOUS
  66
1
  70
0
  40
0.0049
  41
0.0049
  0
VERTEX
  8
Net
  10
3.3975
  20
2.1091
  42
1
  0
VERTEX
  8
Net
  10
3.4025
  20
2.1091
  42
1
  0
VERTEX
  8
Net
  10
3.3975
  20
2.1091
  42
1
  0
SEQEND
  0
POLYLINE
  8
Net
  6
CONTINUOUS
  66
1
  70
0
  40
0.0098
  41
0.0098
  0
VERTEX
  8
Net
  10
3.4
  20
2.1091
  42
0
  0
VERTEX
  8
Net
  10
1.325
  20
2.1091
  42
0
  0
SEQEND
  0
POLYLINE
  8
Net
  6
CONTINUOUS
  66
1
  70
0
  40
0.0049
  41
0.0049
  0
VERTEX
  8
Net
  10
3.3975
  20
2.1091
  42
1
  0
VERTEX
  8
Net
  10
3.4025
  20
2.1091
  42
1
  0
VERTEX
  8
Net
  10
3.3975
  20
2.1091
  42
1
  0
SEQEND
  0
POLYLINE
  8
Net
  6
CONTINUOUS
  66
1
  70
0
  40
0.0049
  41
0.0049
  0
VERTEX
  8
Net
  10
1.3225
  20
2.1091
  42
1
  0
VERTEX
  8
Net
  10
1.3275
  20
2.1091
  42
1
  0
VERTEX
  8
Net
  10
1.3225
  20
2.1091
  42
1
  0
SEQEND
  0
POLYLINE
  8
Net
  6
CONTINUOUS
  66
1
  70
0
  40
0.0098
  41
0.0098
  0
VERTEX
  8
Net
  10
1.325
  20
2.1091
  42
0
  0
VERTEX
  8
Net
  10
1.325
  20
1.7841
  42
0
  0
SEQEND
  0
POLYLINE
  8
Net
  6
CONTINUOUS
  66
1
  70
0
  40
0.0049
  41
0.0049
  0
VERTEX
  8
Net
  10
1.3225
  20
2.1091
  42
1
  0
VERTEX
  8
Net
  10
1.3275
  20
2.1091
  42
1
  0
VERTEX
  8
Net
  10
1.3225
  20
2.1091
  42
1
  0
SEQEND
  0
POLYLINE
  8
Net
  6
CONTINUOUS
  66
1
  70
0
  40
0.0049
  41
0.0049
  0
VERTEX
  8
Net
  10
1.3225
  20
1.7841
  42
1
  0
VERTEX
  8
Net
  10
1.3275
  20
1.7841
  42
1
  0
VERTEX
  8
Net
  10
1.3225
  20
1.7841
  42
1
  0
SEQEND
  0
POLYLINE
  8
Net
  6
CONTINUOUS
  66
1
  70
0
  40
0.0098
  41
0.0098
  0
VERTEX
  8
Net
  10
1.475
  20
0.9341
  42
0
  0
VERTEX
  8
Net
  10
0.55
  20
0.9341
  42
0
  0
SEQEND
  0
POLYLINE
  8
Net
  6
CONTINUOUS
  66
1
  70
0
  40
0.0049
  41
0.0049
  0
VERTEX
  8
Net
  10
1.4725
  20
0.9341
  42
1
  0
VERTEX
  8
Net
  10
1.4775
  20
0.9341
  42
1
  0
VERTEX
  8
Net
  10
1.4725
  20
0.9341
  42
1
  0
SEQEND
  0
POLYLINE
  8
Net
  6
CONTINUOUS
  66
1
  70
0
  40
0.0049
  41
0.0049
  0
VERTEX
  8
Net
  10
0.5475
  20
0.9341
  42
1
  0
VERTEX
  8
Net
  10
0.5525
  20
0.9341
  42
1
  0
VERTEX
  8
Net
  10
0.5475
  20
0.9341
  42
1
  0
SEQEND
  0
POLYLINE
  8
Net
  6
CONTINUOUS
  66
1
  70
0
  40
0.0098
  41
0.0098
  0
VERTEX
  8
Net
  10
1.0902
  20
0.9341
  42
0
  0
VERTEX
  8
Net
  10
1.0906
  20
0.931
  42
0
  0
VERTEX
  8
Net
  10
1.092
  20
0.9283
  42
0
  0
VERTEX
  8
Net
  10
1.0942
  20
0.9261
  42
0
  0
VERTEX
  8
Net
  10
1.097
  20
0.9247
  42
0
  0
VERTEX
  8
Net
  10
1.1
  20
0.9242
  42
0
  0
VERTEX
  8
Net
  10
1.103
  20
0.9247
  42
0
  0
VERTEX
  8
Net
  10
1.1058
  20
0.9261
  42
0
  0
VERTEX
  8
Net
  10
1.108
  20
0.9283
  42
0
  0
VERTEX
  8
Net
  10
1.1094
  20
0.931
  42
0
  0
VERTEX
  8
Net
  10
1.1098
  20
0.9341
  42
0
  0
VERTEX
  8
Net
  10
1.1094
  20
0.9371
  42
0
  0
VERTEX
  8
Net
  10
1.108
  20
0.9398
  42
0
  0
VERTEX
  8
Net
  10
1.1058
  20
0.942
  42
0
  0
VERTEX
  8
Net
  10
1.103
  20
0.9434
  42
0
  0
VERTEX
  8
Net
  10
1.1
  20
0.9439
  42
0
  0
VERTEX
  8
Net
  10
1.097
  20
0.9434
  42
0
  0
VERTEX
  8
Net
  10
1.0942
  20
0.942
  42
0
  0
VERTEX
  8
Net
  10
1.092
  20
0.9398
  42
0
  0
VERTEX
  8
Net
  10
1.0906
  20
0.9371
  42
0
  0
VERTEX
  8
Net
  10
1.0902
  20
0.9341
  42
0
  0
SEQEND
  0
POLYLINE
  8
Net
  6
CONTINUOUS
  66
1
  70
0
  40
0.0049
  41
0.0049
  0
VERTEX
  8
Net
  10
1.0877
  20
0.9341
  42
1
  0
VERTEX
  8
Net
  10
1.0926
  20
0.9341
  42
1
  0
VERTEX
  8
Net
  10
1.0877
  20
0.9341
  42
1
  0
SEQEND
  0
POLYLINE
  8
Net
  6
CONTINUOUS
  66
1
  70
0
  40
0.0098
  41
0.0098
  0
VERTEX
  8
Net
  10
2.425
  20
1.1591
  42
0
  0
VERTEX
  8
Net
  10
1.1
  20
1.1591
  42
0
  0
SEQEND
  0
POLYLINE
  8
Net
  6
CONTINUOUS
  66
1
  70
0
  40
0.0049
  41
0.0049
  0
VERTEX
  8
Net
  10
2.4225
  20
1.1591
  42
1
  0
VERTEX
  8
Net
  10
2.4275
  20
1.1591
  42
1
  0
VERTEX
  8
Net
  10
2.4225
  20
1.1591
  42
1
  0
SEQEND
  0
POLYLINE
  8
Net
  6
CONTINUOUS
  66
1
  70
0
  40
0.0049
  41
0.0049
  0
VERTEX
  8
Net
  10
1.0975
  20
1.1591
  42
1
  0
VERTEX
  8
Net
  10
1.1025
  20
1.1591
  42
1
  0
VERTEX
  8
Net
  10
1.0975
  20
1.1591
  42
1
  0
SEQEND
  0
POLYLINE
  8
Net
  6
CONTINUOUS
  66
1
  70
0
  40
0.0098
  41
0.0098
  0
VERTEX
  8
Net
  10
1.1
  20
1.1591
  42
0
  0
VERTEX
  8
Net
  10
1.1
  20
0.9341
  42
0
  0
SEQEND
  0
POLYLINE
  8
Net
  6
CONTINUOUS
  66
1
  70
0
  40
0.0049
  41
0.0049
  0
VERTEX
  8
Net
  10
1.0975
  20
1.1591
  42
1
  0
VERTEX
  8
Net
  10
1.1025
  20
1.1591
  42
1
  0
VERTEX
  8
Net
  10
1.0975
  20
1.1591
  42
1
  0
SEQEND
  0
POLYLINE
  8
Net
  6
CONTINUOUS
  66
1
  70
0
  40
0.0049
  41
0.0049
  0
VERTEX
  8
Net
  10
1.0975
  20
0.9341
  42
1
  0
VERTEX
  8
Net
  10
1.1025
  20
0.9341
  42
1
  0
VERTEX
  8
Net
  10
1.0975
  20
0.9341
  42
1
  0
SEQEND
  0
POLYLINE
  8
Net
  6
CONTINUOUS
  66
1
  70
0
  40
0.0098
  41
0.0098
  0
VERTEX
  8
Net
  10
1.475
  20
0.5091
  42
0
  0
VERTEX
  8
Net
  10
0.55
  20
0.5091
  42
0
  0
SEQEND
  0
POLYLINE
  8
Net
  6
CONTINUOUS
  66
1
  70
0
  40
0.0049
  41
0.0049
  0
VERTEX
  8
Net
  10
1.4725
  20
0.5091
  42
1
  0
VERTEX
  8
Net
  10
1.4775
  20
0.5091
  42
1
  0
VERTEX
  8
Net
  10
1.4725
  20
0.5091
  42
1
  0
SEQEND
  0
POLYLINE
  8
Net
  6
CONTINUOUS
  66
1
  70
0
  40
0.0049
  41
0.0049
  0
VERTEX
  8
Net
  10
0.5475
  20
0.5091
  42
1
  0
VERTEX
  8
Net
  10
0.5525
  20
0.5091
  42
1
  0
VERTEX
  8
Net
  10
0.5475
  20
0.5091
  42
1
  0
SEQEND
  0
POLYLINE
  8
Net
  6
CONTINUOUS
  66
1
  70
0
  40
0.0098
  41
0.0098
  0
VERTEX
  8
Net
  10
1.2652
  20
0.5091
  42
0
  0
VERTEX
  8
Net
  10
1.2656
  20
0.506
  42
0
  0
VERTEX
  8
Net
  10
1.267
  20
0.5033
  42
0
  0
VERTEX
  8
Net
  10
1.2692
  20
0.5011
  42
0
  0
VERTEX
  8
Net
  10
1.272
  20
0.4997
  42
0
  0
VERTEX
  8
Net
  10
1.275
  20
0.4992
  42
0
  0
VERTEX
  8
Net
  10
1.278
  20
0.4997
  42
0
  0
VERTEX
  8
Net
  10
1.2808
  20
0.5011
  42
0
  0
VERTEX
  8
Net
  10
1.283
  20
0.5033
  42
0
  0
VERTEX
  8
Net
  10
1.2844
  20
0.506
  42
0
  0
VERTEX
  8
Net
  10
1.2848
  20
0.5091
  42
0
  0
VERTEX
  8
Net
  10
1.2844
  20
0.5121
  42
0
  0
VERTEX
  8
Net
  10
1.283
  20
0.5148
  42
0
  0
VERTEX
  8
Net
  10
1.2808
  20
0.517
  42
0
  0
VERTEX
  8
Net
  10
1.278
  20
0.5184
  42
0
  0
VERTEX
  8
Net
  10
1.275
  20
0.5189
  42
0
  0
VERTEX
  8
Net
  10
1.272
  20
0.5184
  42
0
  0
VERTEX
  8
Net
  10
1.2692
  20
0.517
  42
0
  0
VERTEX
  8
Net
  10
1.267
  20
0.5148
  42
0
  0
VERTEX
  8
Net
  10
1.2656
  20
0.5121
  42
0
  0
VERTEX
  8
Net
  10
1.2652
  20
0.5091
  42
0
  0
SEQEND
  0
POLYLINE
  8
Net
  6
CONTINUOUS
  66
1
  70
0
  40
0.0049
  41
0.0049
  0
VERTEX
  8
Net
  10
1.2627
  20
0.5091
  42
1
  0
VERTEX
  8
Net
  10
1.2676
  20
0.5091
  42
1
  0
VERTEX
  8
Net
  10
1.2627
  20
0.5091
  42
1
  0
SEQEND
  0
POLYLINE
  8
Net
  6
CONTINUOUS
  66
1
  70
0
  40
0.0098
  41
0.0098
  0
VERTEX
  8
Net
  10
4.475
  20
1.9091
  42
0
  0
VERTEX
  8
Net
  10
4.025
  20
1.9091
  42
0
  0
SEQEND
  0
POLYLINE
  8
Net
  6
CONTINUOUS
  66
1
  70
0
  40
0.0049
  41
0.0049
  0
VERTEX
  8
Net
  10
4.4725
  20
1.9091
  42
1
  0
VERTEX
  8
Net
  10
4.4775
  20
1.9091
  42
1
  0
VERTEX
  8
Net
  10
4.4725
  20
1.9091
  42
1
  0
SEQEND
  0
POLYLINE
  8
Net
  6
CONTINUOUS
  66
1
  70
0
  40
0.0049
  41
0.0049
  0
VERTEX
  8
Net
  10
4.0225
  20
1.9091
  42
1
  0
VERTEX
  8
Net
  10
4.0275
  20
1.9091
  42
1
  0
VERTEX
  8
Net
  10
4.0225
  20
1.9091
  42
1
  0
SEQEND
  0
POLYLINE
  8
Net
  6
CONTINUOUS
  66
1
  70
0
  40
0.0098
  41
0.0098
  0
VERTEX
  8
Net
  10
4.025
  20
1.9091
  42
0
  0
VERTEX
  8
Net
  10
4.025
  20
0.8091
  42
0
  0
SEQEND
  0
POLYLINE
  8
Net
  6
CONTINUOUS
  66
1
  70
0
  40
0.0049
  41
0.0049
  0
VERTEX
  8
Net
  10
4.0225
  20
1.9091
  42
1
  0
VERTEX
  8
Net
  10
4.0275
  20
1.9091
  42
1
  0
VERTEX
  8
Net
  10
4.0225
  20
1.9091
  42
1
  0
SEQEND
  0
POLYLINE
  8
Net
  6
CONTINUOUS
  66
1
  70
0
  40
0.0049
  41
0.0049
  0
VERTEX
  8
Net
  10
4.0225
  20
0.8091
  42
1
  0
VERTEX
  8
Net
  10
4.0275
  20
0.8091
  42
1
  0
VERTEX
  8
Net
  10
4.0225
  20
0.8091
  42
1
  0
SEQEND
  0
POLYLINE
  8
Net
  6
CONTINUOUS
  66
1
  70
0
  40
0.0098
  41
0.0098
  0
VERTEX
  8
Net
  10
4.025
  20
0.8091
  42
0
  0
VERTEX
  8
Net
  10
1.275
  20
0.8091
  42
0
  0
SEQEND
  0
POLYLINE
  8
Net
  6
CONTINUOUS
  66
1
  70
0
  40
0.0049
  41
0.0049
  0
VERTEX
  8
Net
  10
4.0225
  20
0.8091
  42
1
  0
VERTEX
  8
Net
  10
4.0275
  20
0.8091
  42
1
  0
VERTEX
  8
Net
  10
4.0225
  20
0.8091
  42
1
  0
SEQEND
  0
POLYLINE
  8
Net
  6
CONTINUOUS
  66
1
  70
0
  40
0.0049
  41
0.0049
  0
VERTEX
  8
Net
  10
1.2725
  20
0.8091
  42
1
  0
VERTEX
  8
Net
  10
1.2775
  20
0.8091
  42
1
  0
VERTEX
  8
Net
  10
1.2725
  20
0.8091
  42
1
  0
SEQEND
  0
POLYLINE
  8
Net
  6
CONTINUOUS
  66
1
  70
0
  40
0.0098
  41
0.0098
  0
VERTEX
  8
Net
  10
1.275
  20
0.8091
  42
0
  0
VERTEX
  8
Net
  10
1.275
  20
0.5091
  42
0
  0
SEQEND
  0
POLYLINE
  8
Net
  6
CONTINUOUS
  66
1
  70
0
  40
0.0049
  41
0.0049
  0
VERTEX
  8
Net
  10
1.2725
  20
0.8091
  42
1
  0
VERTEX
  8
Net
  10
1.2775
  20
0.8091
  42
1
  0
VERTEX
  8
Net
  10
1.2725
  20
0.8091
  42
1
  0
SEQEND
  0
POLYLINE
  8
Net
  6
CONTINUOUS
  66
1
  70
0
  40
0.0049
  41
0.0049
  0
VERTEX
  8
Net
  10
1.2725
  20
0.5091
  42
1
  0
VERTEX
  8
Net
  10
1.2775
  20
0.5091
  42
1
  0
VERTEX
  8
Net
  10
1.2725
  20
0.5091
  42
1
  0
SEQEND
  0
POLYLINE
  8
Net
  6
CONTINUOUS
  66
1
  70
0
  40
0.0098
  41
0.0098
  0
VERTEX
  8
Net
  10
4.425
  20
4.9091
  42
0
  0
VERTEX
  8
Net
  10
3.2
  20
4.9091
  42
0
  0
SEQEND
  0
POLYLINE
  8
Net
  6
CONTINUOUS
  66
1
  70
0
  40
0.0049
  41
0.0049
  0
VERTEX
  8
Net
  10
4.4225
  20
4.9091
  42
1
  0
VERTEX
  8
Net
  10
4.4275
  20
4.9091
  42
1
  0
VERTEX
  8
Net
  10
4.4225
  20
4.9091
  42
1
  0
SEQEND
  0
POLYLINE
  8
Net
  6
CONTINUOUS
  66
1
  70
0
  40
0.0049
  41
0.0049
  0
VERTEX
  8
Net
  10
3.1975
  20
4.9091
  42
1
  0
VERTEX
  8
Net
  10
3.2025
  20
4.9091
  42
1
  0
VERTEX
  8
Net
  10
3.1975
  20
4.9091
  42
1
  0
SEQEND
  0
POLYLINE
  8
Net
  6
CONTINUOUS
  66
1
  70
0
  40
0.0098
  41
0.0098
  0
VERTEX
  8
Net
  10
3.2
  20
4.9091
  42
0
  0
VERTEX
  8
Net
  10
3.2
  20
5.0091
  42
0
  0
SEQEND
  0
POLYLINE
  8
Net
  6
CONTINUOUS
  66
1
  70
0
  40
0.0049
  41
0.0049
  0
VERTEX
  8
Net
  10
3.1975
  20
4.9091
  42
1
  0
VERTEX
  8
Net
  10
3.2025
  20
4.9091
  42
1
  0
VERTEX
  8
Net
  10
3.1975
  20
4.9091
  42
1
  0
SEQEND
  0
POLYLINE
  8
Net
  6
CONTINUOUS
  66
1
  70
0
  40
0.0049
  41
0.0049
  0
VERTEX
  8
Net
  10
3.1975
  20
5.0091
  42
1
  0
VERTEX
  8
Net
  10
3.2025
  20
5.0091
  42
1
  0
VERTEX
  8
Net
  10
3.1975
  20
5.0091
  42
1
  0
SEQEND
  0
POLYLINE
  8
Net
  6
CONTINUOUS
  66
1
  70
0
  40
0.0098
  41
0.0098
  0
VERTEX
  8
Net
  10
4.45
  20
4.1341
  42
0
  0
VERTEX
  8
Net
  10
3.175
  20
4.1341
  42
0
  0
SEQEND
  0
POLYLINE
  8
Net
  6
CONTINUOUS
  66
1
  70
0
  40
0.0049
  41
0.0049
  0
VERTEX
  8
Net
  10
4.4475
  20
4.1341
  42
1
  0
VERTEX
  8
Net
  10
4.4525
  20
4.1341
  42
1
  0
VERTEX
  8
Net
  10
4.4475
  20
4.1341
  42
1
  0
SEQEND
  0
POLYLINE
  8
Net
  6
CONTINUOUS
  66
1
  70
0
  40
0.0049
  41
0.0049
  0
VERTEX
  8
Net
  10
3.1725
  20
4.1341
  42
1
  0
VERTEX
  8
Net
  10
3.1775
  20
4.1341
  42
1
  0
VERTEX
  8
Net
  10
3.1725
  20
4.1341
  42
1
  0
SEQEND
  0
POLYLINE
  8
Net
  6
CONTINUOUS
  66
1
  70
0
  40
0.0098
  41
0.0098
  0
VERTEX
  8
Net
  10
3.175
  20
4.1341
  42
0
  0
VERTEX
  8
Net
  10
3.175
  20
3.7091
  42
0
  0
SEQEND
  0
POLYLINE
  8
Net
  6
CONTINUOUS
  66
1
  70
0
  40
0.0049
  41
0.0049
  0
VERTEX
  8
Net
  10
3.1725
  20
4.1341
  42
1
  0
VERTEX
  8
Net
  10
3.1775
  20
4.1341
  42
1
  0
VERTEX
  8
Net
  10
3.1725
  20
4.1341
  42
1
  0
SEQEND
  0
POLYLINE
  8
Net
  6
CONTINUOUS
  66
1
  70
0
  40
0.0049
  41
0.0049
  0
VERTEX
  8
Net
  10
3.1725
  20
3.7091
  42
1
  0
VERTEX
  8
Net
  10
3.1775
  20
3.7091
  42
1
  0
VERTEX
  8
Net
  10
3.1725
  20
3.7091
  42
1
  0
SEQEND
  0
POLYLINE
  8
Net
  6
CONTINUOUS
  66
1
  70
0
  40
0.0098
  41
0.0098
  0
VERTEX
  8
Net
  10
4.45
  20
3.1841
  42
0
  0
VERTEX
  8
Net
  10
3.05
  20
3.1841
  42
0
  0
SEQEND
  0
POLYLINE
  8
Net
  6
CONTINUOUS
  66
1
  70
0
  40
0.0049
  41
0.0049
  0
VERTEX
  8
Net
  10
4.4475
  20
3.1841
  42
1
  0
VERTEX
  8
Net
  10
4.4525
  20
3.1841
  42
1
  0
VERTEX
  8
Net
  10
4.4475
  20
3.1841
  42
1
  0
SEQEND
  0
POLYLINE
  8
Net
  6
CONTINUOUS
  66
1
  70
0
  40
0.0049
  41
0.0049
  0
VERTEX
  8
Net
  10
3.0475
  20
3.1841
  42
1
  0
VERTEX
  8
Net
  10
3.0525
  20
3.1841
  42
1
  0
VERTEX
  8
Net
  10
3.0475
  20
3.1841
  42
1
  0
SEQEND
  0
POLYLINE
  8
Net
  6
CONTINUOUS
  66
1
  70
0
  40
0.0098
  41
0.0098
  0
VERTEX
  8
Net
  10
3.05
  20
3.1841
  42
0
  0
VERTEX
  8
Net
  10
3.05
  20
2.3841
  42
0
  0
SEQEND
  0
POLYLINE
  8
Net
  6
CONTINUOUS
  66
1
  70
0
  40
0.0049
  41
0.0049
  0
VERTEX
  8
Net
  10
3.0475
  20
3.1841
  42
1
  0
VERTEX
  8
Net
  10
3.0525
  20
3.1841
  42
1
  0
VERTEX
  8
Net
  10
3.0475
  20
3.1841
  42
1
  0
SEQEND
  0
POLYLINE
  8
Net
  6
CONTINUOUS
  66
1
  70
0
  40
0.0049
  41
0.0049
  0
VERTEX
  8
Net
  10
3.0475
  20
2.3841
  42
1
  0
VERTEX
  8
Net
  10
3.0525
  20
2.3841
  42
1
  0
VERTEX
  8
Net
  10
3.0475
  20
2.3841
  42
1
  0
SEQEND
  0
POLYLINE
  8
Net
  6
CONTINUOUS
  66
1
  70
0
  40
0.0098
  41
0.0098
  0
VERTEX
  8
Net
  10
4.425
  20
2.2591
  42
0
  0
VERTEX
  8
Net
  10
3.775
  20
2.2591
  42
0
  0
SEQEND
  0
POLYLINE
  8
Net
  6
CONTINUOUS
  66
1
  70
0
  40
0.0049
  41
0.0049
  0
VERTEX
  8
Net
  10
4.4225
  20
2.2591
  42
1
  0
VERTEX
  8
Net
  10
4.4275
  20
2.2591
  42
1
  0
VERTEX
  8
Net
  10
4.4225
  20
2.2591
  42
1
  0
SEQEND
  0
POLYLINE
  8
Net
  6
CONTINUOUS
  66
1
  70
0
  40
0.0049
  41
0.0049
  0
VERTEX
  8
Net
  10
3.7725
  20
2.2591
  42
1
  0
VERTEX
  8
Net
  10
3.7775
  20
2.2591
  42
1
  0
VERTEX
  8
Net
  10
3.7725
  20
2.2591
  42
1
  0
SEQEND
  0
POLYLINE
  8
Net
  6
CONTINUOUS
  66
1
  70
0
  40
0.0098
  41
0.0098
  0
VERTEX
  8
Net
  10
3.775
  20
2.2591
  42
0
  0
VERTEX
  8
Net
  10
3.775
  20
1.1591
  42
0
  0
SEQEND
  0
POLYLINE
  8
Net
  6
CONTINUOUS
  66
1
  70
0
  40
0.0049
  41
0.0049
  0
VERTEX
  8
Net
  10
3.7725
  20
2.2591
  42
1
  0
VERTEX
  8
Net
  10
3.7775
  20
2.2591
  42
1
  0
VERTEX
  8
Net
  10
3.7725
  20
2.2591
  42
1
  0
SEQEND
  0
POLYLINE
  8
Net
  6
CONTINUOUS
  66
1
  70
0
  40
0.0049
  41
0.0049
  0
VERTEX
  8
Net
  10
3.7725
  20
1.1591
  42
1
  0
VERTEX
  8
Net
  10
3.7775
  20
1.1591
  42
1
  0
VERTEX
  8
Net
  10
3.7725
  20
1.1591
  42
1
  0
SEQEND
  0
POLYLINE
  8
Net
  6
CONTINUOUS
  66
1
  70
0
  40
0.0098
  41
0.0098
  0
VERTEX
  8
Net
  10
3.775
  20
1.1591
  42
0
  0
VERTEX
  8
Net
  10
3.025
  20
1.1591
  42
0
  0
SEQEND
  0
POLYLINE
  8
Net
  6
CONTINUOUS
  66
1
  70
0
  40
0.0049
  41
0.0049
  0
VERTEX
  8
Net
  10
3.7725
  20
1.1591
  42
1
  0
VERTEX
  8
Net
  10
3.7775
  20
1.1591
  42
1
  0
VERTEX
  8
Net
  10
3.7725
  20
1.1591
  42
1
  0
SEQEND
  0
POLYLINE
  8
Net
  6
CONTINUOUS
  66
1
  70
0
  40
0.0049
  41
0.0049
  0
VERTEX
  8
Net
  10
3.0225
  20
1.1591
  42
1
  0
VERTEX
  8
Net
  10
3.0275
  20
1.1591
  42
1
  0
VERTEX
  8
Net
  10
3.0225
  20
1.1591
  42
1
  0
SEQEND
  0
TEXT
  8
Pin
  10
3.0762
  20
5.0572
  40
0.0292
  41
0.7
  1
2
  50
0.0
  72
0
  73
3
  7
STANDARD
  71
0
  11
3.0762
  21
5.0572
  0
POLYLINE
  8
Pin
  6
CONTINUOUS
  66
1
  70
0
  40
0.0098
  41
0.0098
  0
VERTEX
  8
Pin
  10
3.05
  20
5.0091
  42
0
  0
VERTEX
  8
Pin
  10
3.2
  20
5.0091
  42
0
  0
SEQEND
  0
POLYLINE
  8
Pin
  6
CONTINUOUS
  66
1
  70
0
  40
0.0049
  41
0.0049
  0
VERTEX
  8
Pin
  10
3.0475
  20
5.0091
  42
1
  0
VERTEX
  8
Pin
  10
3.0525
  20
5.0091
  42
1
  0
VERTEX
  8
Pin
  10
3.0475
  20
5.0091
  42
1
  0
SEQEND
  0
POLYLINE
  8
Pin
  6
CONTINUOUS
  66
1
  70
0
  40
0.0049
  41
0.0049
  0
VERTEX
  8
Pin
  10
3.1975
  20
5.0091
  42
1
  0
VERTEX
  8
Pin
  10
3.2025
  20
5.0091
  42
1
  0
VERTEX
  8
Pin
  10
3.1975
  20
5.0091
  42
1
  0
SEQEND
  0
TEXT
  8
Pin
  10
2.7024
  20
5.0572
  40
0.0292
  41
0.7
  1
1
  50
0.0
  72
0
  73
3
  7
STANDARD
  71
0
  11
2.7024
  21
5.0572
  0
POLYLINE
  8
Pin
  6
CONTINUOUS
  66
1
  70
0
  40
0.0098
  41
0.0098
  0
VERTEX
  8
Pin
  10
2.75
  20
5.0091
  42
0
  0
VERTEX
  8
Pin
  10
2.6
  20
5.0091
  42
0
  0
SEQEND
  0
POLYLINE
  8
Pin
  6
CONTINUOUS
  66
1
  70
0
  40
0.0049
  41
0.0049
  0
VERTEX
  8
Pin
  10
2.7475
  20
5.0091
  42
1
  0
VERTEX
  8
Pin
  10
2.7525
  20
5.0091
  42
1
  0
VERTEX
  8
Pin
  10
2.7475
  20
5.0091
  42
1
  0
SEQEND
  0
POLYLINE
  8
Pin
  6
CONTINUOUS
  66
1
  70
0
  40
0.0049
  41
0.0049
  0
VERTEX
  8
Pin
  10
2.5975
  20
5.0091
  42
1
  0
VERTEX
  8
Pin
  10
2.6025
  20
5.0091
  42
1
  0
VERTEX
  8
Pin
  10
2.5975
  20
5.0091
  42
1
  0
SEQEND
  0
TEXT
  8
Pin
  10
3.0512
  20
3.7572
  40
0.0292
  41
0.7
  1
2
  50
0.0
  72
0
  73
3
  7
STANDARD
  71
0
  11
3.0512
  21
3.7572
  0
POLYLINE
  8
Pin
  6
CONTINUOUS
  66
1
  70
0
  40
0.0098
  41
0.0098
  0
VERTEX
  8
Pin
  10
3.025
  20
3.7091
  42
0
  0
VERTEX
  8
Pin
  10
3.175
  20
3.7091
  42
0
  0
SEQEND
  0
POLYLINE
  8
Pin
  6
CONTINUOUS
  66
1
  70
0
  40
0.0049
  41
0.0049
  0
VERTEX
  8
Pin
  10
3.0225
  20
3.7091
  42
1
  0
VERTEX
  8
Pin
  10
3.0275
  20
3.7091
  42
1
  0
VERTEX
  8
Pin
  10
3.0225
  20
3.7091
  42
1
  0
SEQEND
  0
POLYLINE
  8
Pin
  6
CONTINUOUS
  66
1
  70
0
  40
0.0049
  41
0.0049
  0
VERTEX
  8
Pin
  10
3.1725
  20
3.7091
  42
1
  0
VERTEX
  8
Pin
  10
3.1775
  20
3.7091
  42
1
  0
VERTEX
  8
Pin
  10
3.1725
  20
3.7091
  42
1
  0
SEQEND
  0
TEXT
  8
Pin
  10
2.6774
  20
3.7572
  40
0.0292
  41
0.7
  1
1
  50
0.0
  72
0
  73
3
  7
STANDARD
  71
0
  11
2.6774
  21
3.7572
  0
POLYLINE
  8
Pin
  6
CONTINUOUS
  66
1
  70
0
  40
0.0098
  41
0.0098
  0
VERTEX
  8
Pin
  10
2.725
  20
3.7091
  42
0
  0
VERTEX
  8
Pin
  10
2.575
  20
3.7091
  42
0
  0
SEQEND
  0
POLYLINE
  8
Pin
  6
CONTINUOUS
  66
1
  70
0
  40
0.0049
  41
0.0049
  0
VERTEX
  8
Pin
  10
2.7225
  20
3.7091
  42
1
  0
VERTEX
  8
Pin
  10
2.7275
  20
3.7091
  42
1
  0
VERTEX
  8
Pin
  10
2.7225
  20
3.7091
  42
1
  0
SEQEND
  0
POLYLINE
  8
Pin
  6
CONTINUOUS
  66
1
  70
0
  40
0.0049
  41
0.0049
  0
VERTEX
  8
Pin
  10
2.5725
  20
3.7091
  42
1
  0
VERTEX
  8
Pin
  10
2.5775
  20
3.7091
  42
1
  0
VERTEX
  8
Pin
  10
2.5725
  20
3.7091
  42
1
  0
SEQEND
  0
TEXT
  8
Pin
  10
2.9262
  20
2.4322
  40
0.0292
  41
0.7
  1
2
  50
0.0
  72
0
  73
3
  7
STANDARD
  71
0
  11
2.9262
  21
2.4322
  0
POLYLINE
  8
Pin
  6
CONTINUOUS
  66
1
  70
0
  40
0.0098
  41
0.0098
  0
VERTEX
  8
Pin
  10
2.9
  20
2.3841
  42
0
  0
VERTEX
  8
Pin
  10
3.05
  20
2.3841
  42
0
  0
SEQEND
  0
POLYLINE
  8
Pin
  6
CONTINUOUS
  66
1
  70
0
  40
0.0049
  41
0.0049
  0
VERTEX
  8
Pin
  10
2.8975
  20
2.3841
  42
1
  0
VERTEX
  8
Pin
  10
2.9025
  20
2.3841
  42
1
  0
VERTEX
  8
Pin
  10
2.8975
  20
2.3841
  42
1
  0
SEQEND
  0
POLYLINE
  8
Pin
  6
CONTINUOUS
  66
1
  70
0
  40
0.0049
  41
0.0049
  0
VERTEX
  8
Pin
  10
3.0475
  20
2.3841
  42
1
  0
VERTEX
  8
Pin
  10
3.0525
  20
2.3841
  42
1
  0
VERTEX
  8
Pin
  10
3.0475
  20
2.3841
  42
1
  0
SEQEND
  0
TEXT
  8
Pin
  10
2.5524
  20
2.4322
  40
0.0292
  41
0.7
  1
1
  50
0.0
  72
0
  73
3
  7
STANDARD
  71
0
  11
2.5524
  21
2.4322
  0
POLYLINE
  8
Pin
  6
CONTINUOUS
  66
1
  70
0
  40
0.0098
  41
0.0098
  0
VERTEX
  8
Pin
  10
2.6
  20
2.3841
  42
0
  0
VERTEX
  8
Pin
  10
2.45
  20
2.3841
  42
0
  0
SEQEND
  0
POLYLINE
  8
Pin
  6
CONTINUOUS
  66
1
  70
0
  40
0.0049
  41
0.0049
  0
VERTEX
  8
Pin
  10
2.5975
  20
2.3841
  42
1
  0
VERTEX
  8
Pin
  10
2.6025
  20
2.3841
  42
1
  0
VERTEX
  8
Pin
  10
2.5975
  20
2.3841
  42
1
  0
SEQEND
  0
POLYLINE
  8
Pin
  6
CONTINUOUS
  66
1
  70
0
  40
0.0049
  41
0.0049
  0
VERTEX
  8
Pin
  10
2.4475
  20
2.3841
  42
1
  0
VERTEX
  8
Pin
  10
2.4525
  20
2.3841
  42
1
  0
VERTEX
  8
Pin
  10
2.4475
  20
2.3841
  42
1
  0
SEQEND
  0
TEXT
  8
Pin
  10
2.9012
  20
1.2072
  40
0.0292
  41
0.7
  1
2
  50
0.0
  72
0
  73
3
  7
STANDARD
  71
0
  11
2.9012
  21
1.2072
  0
POLYLINE
  8
Pin
  6
CONTINUOUS
  66
1
  70
0
  40
0.0098
  41
0.0098
  0
VERTEX
  8
Pin
  10
2.875
  20
1.1591
  42
0
  0
VERTEX
  8
Pin
  10
3.025
  20
1.1591
  42
0
  0
SEQEND
  0
POLYLINE
  8
Pin
  6
CONTINUOUS
  66
1
  70
0
  40
0.0049
  41
0.0049
  0
VERTEX
  8
Pin
  10
2.8725
  20
1.1591
  42
1
  0
VERTEX
  8
Pin
  10
2.8775
  20
1.1591
  42
1
  0
VERTEX
  8
Pin
  10
2.8725
  20
1.1591
  42
1
  0
SEQEND
  0
POLYLINE
  8
Pin
  6
CONTINUOUS
  66
1
  70
0
  40
0.0049
  41
0.0049
  0
VERTEX
  8
Pin
  10
3.0225
  20
1.1591
  42
1
  0
VERTEX
  8
Pin
  10
3.0275
  20
1.1591
  42
1
  0
VERTEX
  8
Pin
  10
3.0225
  20
1.1591
  42
1
  0
SEQEND
  0
TEXT
  8
Pin
  10
2.5274
  20
1.2072
  40
0.0292
  41
0.7
  1
1
  50
0.0
  72
0
  73
3
  7
STANDARD
  71
0
  11
2.5274
  21
1.2072
  0
POLYLINE
  8
Pin
  6
CONTINUOUS
  66
1
  70
0
  40
0.0098
  41
0.0098
  0
VERTEX
  8
Pin
  10
2.575
  20
1.1591
  42
0
  0
VERTEX
  8
Pin
  10
2.425
  20
1.1591
  42
0
  0
SEQEND
  0
POLYLINE
  8
Pin
  6
CONTINUOUS
  66
1
  70
0
  40
0.0049
  41
0.0049
  0
VERTEX
  8
Pin
  10
2.5725
  20
1.1591
  42
1
  0
VERTEX
  8
Pin
  10
2.5775
  20
1.1591
  42
1
  0
VERTEX
  8
Pin
  10
2.5725
  20
1.1591
  42
1
  0
SEQEND
  0
POLYLINE
  8
Pin
  6
CONTINUOUS
  66
1
  70
0
  40
0.0049
  41
0.0049
  0
VERTEX
  8
Pin
  10
2.4225
  20
1.1591
  42
1
  0
VERTEX
  8
Pin
  10
2.4275
  20
1.1591
  42
1
  0
VERTEX
  8
Pin
  10
2.4225
  20
1.1591
  42
1
  0
SEQEND
  0
TEXT
  8
Pin
  10
0.4262
  20
4.4322
  40
0.0292
  41
0.7
  1
1
  50
0.0
  72
0
  73
3
  7
STANDARD
  71
0
  11
0.4262
  21
4.4322
  0
POLYLINE
  8
Pin
  6
CONTINUOUS
  66
1
  70
0
  40
0.0098
  41
0.0098
  0
VERTEX
  8
Pin
  10
0.4
  20
4.3841
  42
0
  0
VERTEX
  8
Pin
  10
0.55
  20
4.3841
  42
0
  0
SEQEND
  0
POLYLINE
  8
Pin
  6
CONTINUOUS
  66
1
  70
0
  40
0.0049
  41
0.0049
  0
VERTEX
  8
Pin
  10
0.3975
  20
4.3841
  42
1
  0
VERTEX
  8
Pin
  10
0.4025
  20
4.3841
  42
1
  0
VERTEX
  8
Pin
  10
0.3975
  20
4.3841
  42
1
  0
SEQEND
  0
POLYLINE
  8
Pin
  6
CONTINUOUS
  66
1
  70
0
  40
0.0049
  41
0.0049
  0
VERTEX
  8
Pin
  10
0.5475
  20
4.3841
  42
1
  0
VERTEX
  8
Pin
  10
0.5525
  20
4.3841
  42
1
  0
VERTEX
  8
Pin
  10
0.5475
  20
4.3841
  42
1
  0
SEQEND
  0
TEXT
  8
Pin
  10
0.4262
  20
4.0072
  40
0.0292
  41
0.7
  1
2
  50
0.0
  72
0
  73
3
  7
STANDARD
  71
0
  11
0.4262
  21
4.0072
  0
POLYLINE
  8
Pin
  6
CONTINUOUS
  66
1
  70
0
  40
0.0098
  41
0.0098
  0
VERTEX
  8
Pin
  10
0.4
  20
3.9591
  42
0
  0
VERTEX
  8
Pin
  10
0.55
  20
3.9591
  42
0
  0
SEQEND
  0
POLYLINE
  8
Pin
  6
CONTINUOUS
  66
1
  70
0
  40
0.0049
  41
0.0049
  0
VERTEX
  8
Pin
  10
0.3975
  20
3.9591
  42
1
  0
VERTEX
  8
Pin
  10
0.4025
  20
3.9591
  42
1
  0
VERTEX
  8
Pin
  10
0.3975
  20
3.9591
  42
1
  0
SEQEND
  0
POLYLINE
  8
Pin
  6
CONTINUOUS
  66
1
  70
0
  40
0.0049
  41
0.0049
  0
VERTEX
  8
Pin
  10
0.5475
  20
3.9591
  42
1
  0
VERTEX
  8
Pin
  10
0.5525
  20
3.9591
  42
1
  0
VERTEX
  8
Pin
  10
0.5475
  20
3.9591
  42
1
  0
SEQEND
  0
TEXT
  8
Pin
  10
0.4262
  20
3.5822
  40
0.0292
  41
0.7
  1
3
  50
0.0
  72
0
  73
3
  7
STANDARD
  71
0
  11
0.4262
  21
3.5822
  0
POLYLINE
  8
Pin
  6
CONTINUOUS
  66
1
  70
0
  40
0.0098
  41
0.0098
  0
VERTEX
  8
Pin
  10
0.4
  20
3.5341
  42
0
  0
VERTEX
  8
Pin
  10
0.55
  20
3.5341
  42
0
  0
SEQEND
  0
POLYLINE
  8
Pin
  6
CONTINUOUS
  66
1
  70
0
  40
0.0049
  41
0.0049
  0
VERTEX
  8
Pin
  10
0.3975
  20
3.5341
  42
1
  0
VERTEX
  8
Pin
  10
0.4025
  20
3.5341
  42
1
  0
VERTEX
  8
Pin
  10
0.3975
  20
3.5341
  42
1
  0
SEQEND
  0
POLYLINE
  8
Pin
  6
CONTINUOUS
  66
1
  70
0
  40
0.0049
  41
0.0049
  0
VERTEX
  8
Pin
  10
0.5475
  20
3.5341
  42
1
  0
VERTEX
  8
Pin
  10
0.5525
  20
3.5341
  42
1
  0
VERTEX
  8
Pin
  10
0.5475
  20
3.5341
  42
1
  0
SEQEND
  0
TEXT
  8
Pin
  10
0.4262
  20
3.1322
  40
0.0292
  41
0.7
  1
4
  50
0.0
  72
0
  73
3
  7
STANDARD
  71
0
  11
0.4262
  21
3.1322
  0
POLYLINE
  8
Pin
  6
CONTINUOUS
  66
1
  70
0
  40
0.0098
  41
0.0098
  0
VERTEX
  8
Pin
  10
0.4
  20
3.0841
  42
0
  0
VERTEX
  8
Pin
  10
0.55
  20
3.0841
  42
0
  0
SEQEND
  0
POLYLINE
  8
Pin
  6
CONTINUOUS
  66
1
  70
0
  40
0.0049
  41
0.0049
  0
VERTEX
  8
Pin
  10
0.3975
  20
3.0841
  42
1
  0
VERTEX
  8
Pin
  10
0.4025
  20
3.0841
  42
1
  0
VERTEX
  8
Pin
  10
0.3975
  20
3.0841
  42
1
  0
SEQEND
  0
POLYLINE
  8
Pin
  6
CONTINUOUS
  66
1
  70
0
  40
0.0049
  41
0.0049
  0
VERTEX
  8
Pin
  10
0.5475
  20
3.0841
  42
1
  0
VERTEX
  8
Pin
  10
0.5525
  20
3.0841
  42
1
  0
VERTEX
  8
Pin
  10
0.5475
  20
3.0841
  42
1
  0
SEQEND
  0
TEXT
  8
Pin
  10
0.4512
  20
4.8072
  40
0.0292
  41
0.7
  1
5
  50
0.0
  72
0
  73
3
  7
STANDARD
  71
0
  11
0.4512
  21
4.8072
  0
POLYLINE
  8
Pin
  6
CONTINUOUS
  66
1
  70
0
  40
0.0098
  41
0.0098
  0
VERTEX
  8
Pin
  10
0.425
  20
4.7591
  42
0
  0
VERTEX
  8
Pin
  10
0.575
  20
4.7591
  42
0
  0
SEQEND
  0
POLYLINE
  8
Pin
  6
CONTINUOUS
  66
1
  70
0
  40
0.0049
  41
0.0049
  0
VERTEX
  8
Pin
  10
0.4225
  20
4.7591
  42
1
  0
VERTEX
  8
Pin
  10
0.4275
  20
4.7591
  42
1
  0
VERTEX
  8
Pin
  10
0.4225
  20
4.7591
  42
1
  0
SEQEND
  0
POLYLINE
  8
Pin
  6
CONTINUOUS
  66
1
  70
0
  40
0.0049
  41
0.0049
  0
VERTEX
  8
Pin
  10
0.5725
  20
4.7591
  42
1
  0
VERTEX
  8
Pin
  10
0.5775
  20
4.7591
  42
1
  0
VERTEX
  8
Pin
  10
0.5725
  20
4.7591
  42
1
  0
SEQEND
  0
TEXT
  8
Pin
  10
0.4262
  20
2.6822
  40
0.0292
  41
0.7
  1
6
  50
0.0
  72
0
  73
3
  7
STANDARD
  71
0
  11
0.4262
  21
2.6822
  0
POLYLINE
  8
Pin
  6
CONTINUOUS
  66
1
  70
0
  40
0.0098
  41
0.0098
  0
VERTEX
  8
Pin
  10
0.4
  20
2.6341
  42
0
  0
VERTEX
  8
Pin
  10
0.55
  20
2.6341
  42
0
  0
SEQEND
  0
POLYLINE
  8
Pin
  6
CONTINUOUS
  66
1
  70
0
  40
0.0049
  41
0.0049
  0
VERTEX
  8
Pin
  10
0.3975
  20
2.6341
  42
1
  0
VERTEX
  8
Pin
  10
0.4025
  20
2.6341
  42
1
  0
VERTEX
  8
Pin
  10
0.3975
  20
2.6341
  42
1
  0
SEQEND
  0
POLYLINE
  8
Pin
  6
CONTINUOUS
  66
1
  70
0
  40
0.0049
  41
0.0049
  0
VERTEX
  8
Pin
  10
0.5475
  20
2.6341
  42
1
  0
VERTEX
  8
Pin
  10
0.5525
  20
2.6341
  42
1
  0
VERTEX
  8
Pin
  10
0.5475
  20
2.6341
  42
1
  0
SEQEND
  0
TEXT
  8
Pin
  10
0.4262
  20
2.2572
  40
0.0292
  41
0.7
  1
7
  50
0.0
  72
0
  73
3
  7
STANDARD
  71
0
  11
0.4262
  21
2.2572
  0
POLYLINE
  8
Pin
  6
CONTINUOUS
  66
1
  70
0
  40
0.0098
  41
0.0098
  0
VERTEX
  8
Pin
  10
0.4
  20
2.2091
  42
0
  0
VERTEX
  8
Pin
  10
0.55
  20
2.2091
  42
0
  0
SEQEND
  0
POLYLINE
  8
Pin
  6
CONTINUOUS
  66
1
  70
0
  40
0.0049
  41
0.0049
  0
VERTEX
  8
Pin
  10
0.3975
  20
2.2091
  42
1
  0
VERTEX
  8
Pin
  10
0.4025
  20
2.2091
  42
1
  0
VERTEX
  8
Pin
  10
0.3975
  20
2.2091
  42
1
  0
SEQEND
  0
POLYLINE
  8
Pin
  6
CONTINUOUS
  66
1
  70
0
  40
0.0049
  41
0.0049
  0
VERTEX
  8
Pin
  10
0.5475
  20
2.2091
  42
1
  0
VERTEX
  8
Pin
  10
0.5525
  20
2.2091
  42
1
  0
VERTEX
  8
Pin
  10
0.5475
  20
2.2091
  42
1
  0
SEQEND
  0
TEXT
  8
Pin
  10
0.4262
  20
1.8322
  40
0.0292
  41
0.7
  1
8
  50
0.0
  72
0
  73
3
  7
STANDARD
  71
0
  11
0.4262
  21
1.8322
  0
POLYLINE
  8
Pin
  6
CONTINUOUS
  66
1
  70
0
  40
0.0098
  41
0.0098
  0
VERTEX
  8
Pin
  10
0.4
  20
1.7841
  42
0
  0
VERTEX
  8
Pin
  10
0.55
  20
1.7841
  42
0
  0
SEQEND
  0
POLYLINE
  8
Pin
  6
CONTINUOUS
  66
1
  70
0
  40
0.0049
  41
0.0049
  0
VERTEX
  8
Pin
  10
0.3975
  20
1.7841
  42
1
  0
VERTEX
  8
Pin
  10
0.4025
  20
1.7841
  42
1
  0
VERTEX
  8
Pin
  10
0.3975
  20
1.7841
  42
1
  0
SEQEND
  0
POLYLINE
  8
Pin
  6
CONTINUOUS
  66
1
  70
0
  40
0.0049
  41
0.0049
  0
VERTEX
  8
Pin
  10
0.5475
  20
1.7841
  42
1
  0
VERTEX
  8
Pin
  10
0.5525
  20
1.7841
  42
1
  0
VERTEX
  8
Pin
  10
0.5475
  20
1.7841
  42
1
  0
SEQEND
  0
TEXT
  8
Pin
  10
0.4262
  20
1.4072
  40
0.0292
  41
0.7
  1
9
  50
0.0
  72
0
  73
3
  7
STANDARD
  71
0
  11
0.4262
  21
1.4072
  0
POLYLINE
  8
Pin
  6
CONTINUOUS
  66
1
  70
0
  40
0.0098
  41
0.0098
  0
VERTEX
  8
Pin
  10
0.4
  20
1.3591
  42
0
  0
VERTEX
  8
Pin
  10
0.55
  20
1.3591
  42
0
  0
SEQEND
  0
POLYLINE
  8
Pin
  6
CONTINUOUS
  66
1
  70
0
  40
0.0049
  41
0.0049
  0
VERTEX
  8
Pin
  10
0.3975
  20
1.3591
  42
1
  0
VERTEX
  8
Pin
  10
0.4025
  20
1.3591
  42
1
  0
VERTEX
  8
Pin
  10
0.3975
  20
1.3591
  42
1
  0
SEQEND
  0
POLYLINE
  8
Pin
  6
CONTINUOUS
  66
1
  70
0
  40
0.0049
  41
0.0049
  0
VERTEX
  8
Pin
  10
0.5475
  20
1.3591
  42
1
  0
VERTEX
  8
Pin
  10
0.5525
  20
1.3591
  42
1
  0
VERTEX
  8
Pin
  10
0.5475
  20
1.3591
  42
1
  0
SEQEND
  0
TEXT
  8
Pin
  10
0.4262
  20
0.9822
  40
0.0292
  41
0.7
  1
10
  50
0.0
  72
0
  73
3
  7
STANDARD
  71
0
  11
0.4262
  21
0.9822
  0
POLYLINE
  8
Pin
  6
CONTINUOUS
  66
1
  70
0
  40
0.0098
  41
0.0098
  0
VERTEX
  8
Pin
  10
0.4
  20
0.9341
  42
0
  0
VERTEX
  8
Pin
  10
0.55
  20
0.9341
  42
0
  0
SEQEND
  0
POLYLINE
  8
Pin
  6
CONTINUOUS
  66
1
  70
0
  40
0.0049
  41
0.0049
  0
VERTEX
  8
Pin
  10
0.3975
  20
0.9341
  42
1
  0
VERTEX
  8
Pin
  10
0.4025
  20
0.9341
  42
1
  0
VERTEX
  8
Pin
  10
0.3975
  20
0.9341
  42
1
  0
SEQEND
  0
POLYLINE
  8
Pin
  6
CONTINUOUS
  66
1
  70
0
  40
0.0049
  41
0.0049
  0
VERTEX
  8
Pin
  10
0.5475
  20
0.9341
  42
1
  0
VERTEX
  8
Pin
  10
0.5525
  20
0.9341
  42
1
  0
VERTEX
  8
Pin
  10
0.5475
  20
0.9341
  42
1
  0
SEQEND
  0
TEXT
  8
Pin
  10
0.4262
  20
0.5572
  40
0.0292
  41
0.7
  1
11
  50
0.0
  72
0
  73
3
  7
STANDARD
  71
0
  11
0.4262
  21
0.5572
  0
POLYLINE
  8
Pin
  6
CONTINUOUS
  66
1
  70
0
  40
0.0098
  41
0.0098
  0
VERTEX
  8
Pin
  10
0.4
  20
0.5091
  42
0
  0
VERTEX
  8
Pin
  10
0.55
  20
0.5091
  42
0
  0
SEQEND
  0
POLYLINE
  8
Pin
  6
CONTINUOUS
  66
1
  70
0
  40
0.0049
  41
0.0049
  0
VERTEX
  8
Pin
  10
0.3975
  20
0.5091
  42
1
  0
VERTEX
  8
Pin
  10
0.4025
  20
0.5091
  42
1
  0
VERTEX
  8
Pin
  10
0.3975
  20
0.5091
  42
1
  0
SEQEND
  0
POLYLINE
  8
Pin
  6
CONTINUOUS
  66
1
  70
0
  40
0.0049
  41
0.0049
  0
VERTEX
  8
Pin
  10
0.5475
  20
0.5091
  42
1
  0
VERTEX
  8
Pin
  10
0.5525
  20
0.5091
  42
1
  0
VERTEX
  8
Pin
  10
0.5475
  20
0.5091
  42
1
  0
SEQEND
  0
TEXT
  8
Pin
  10
0.4262
  20
0.1072
  40
0.0292
  41
0.7
  1
12
  50
0.0
  72
0
  73
3
  7
STANDARD
  71
0
  11
0.4262
  21
0.1072
  0
POLYLINE
  8
Pin
  6
CONTINUOUS
  66
1
  70
0
  40
0.0098
  41
0.0098
  0
VERTEX
  8
Pin
  10
0.4
  20
0.0591
  42
0
  0
VERTEX
  8
Pin
  10
0.55
  20
0.0591
  42
0
  0
SEQEND
  0
POLYLINE
  8
Pin
  6
CONTINUOUS
  66
1
  70
0
  40
0.0049
  41
0.0049
  0
VERTEX
  8
Pin
  10
0.3975
  20
0.0591
  42
1
  0
VERTEX
  8
Pin
  10
0.4025
  20
0.0591
  42
1
  0
VERTEX
  8
Pin
  10
0.3975
  20
0.0591
  42
1
  0
SEQEND
  0
POLYLINE
  8
Pin
  6
CONTINUOUS
  66
1
  70
0
  40
0.0049
  41
0.0049
  0
VERTEX
  8
Pin
  10
0.5475
  20
0.0591
  42
1
  0
VERTEX
  8
Pin
  10
0.5525
  20
0.0591
  42
1
  0
VERTEX
  8
Pin
  10
0.5475
  20
0.0591
  42
1
  0
SEQEND
  0
TEXT
  8
Pin
  10
1.9512
  20
4.8322
  40
0.0292
  41
0.7
  1
2
  50
0.0
  72
0
  73
3
  7
STANDARD
  71
0
  11
1.9512
  21
4.8322
  0
POLYLINE
  8
Pin
  6
CONTINUOUS
  66
1
  70
0
  40
0.0098
  41
0.0098
  0
VERTEX
  8
Pin
  10
1.925
  20
4.7841
  42
0
  0
VERTEX
  8
Pin
  10
2.075
  20
4.7841
  42
0
  0
SEQEND
  0
POLYLINE
  8
Pin
  6
CONTINUOUS
  66
1
  70
0
  40
0.0049
  41
0.0049
  0
VERTEX
  8
Pin
  10
1.9225
  20
4.7841
  42
1
  0
VERTEX
  8
Pin
  10
1.9275
  20
4.7841
  42
1
  0
VERTEX
  8
Pin
  10
1.9225
  20
4.7841
  42
1
  0
SEQEND
  0
POLYLINE
  8
Pin
  6
CONTINUOUS
  66
1
  70
0
  40
0.0049
  41
0.0049
  0
VERTEX
  8
Pin
  10
2.0725
  20
4.7841
  42
1
  0
VERTEX
  8
Pin
  10
2.0775
  20
4.7841
  42
1
  0
VERTEX
  8
Pin
  10
2.0725
  20
4.7841
  42
1
  0
SEQEND
  0
TEXT
  8
Pin
  10
1.5774
  20
4.8322
  40
0.0292
  41
0.7
  1
1
  50
0.0
  72
0
  73
3
  7
STANDARD
  71
0
  11
1.5774
  21
4.8322
  0
POLYLINE
  8
Pin
  6
CONTINUOUS
  66
1
  70
0
  40
0.0098
  41
0.0098
  0
VERTEX
  8
Pin
  10
1.625
  20
4.7841
  42
0
  0
VERTEX
  8
Pin
  10
1.475
  20
4.7841
  42
0
  0
SEQEND
  0
POLYLINE
  8
Pin
  6
CONTINUOUS
  66
1
  70
0
  40
0.0049
  41
0.0049
  0
VERTEX
  8
Pin
  10
1.6225
  20
4.7841
  42
1
  0
VERTEX
  8
Pin
  10
1.6275
  20
4.7841
  42
1
  0
VERTEX
  8
Pin
  10
1.6225
  20
4.7841
  42
1
  0
SEQEND
  0
POLYLINE
  8
Pin
  6
CONTINUOUS
  66
1
  70
0
  40
0.0049
  41
0.0049
  0
VERTEX
  8
Pin
  10
1.4725
  20
4.7841
  42
1
  0
VERTEX
  8
Pin
  10
1.4775
  20
4.7841
  42
1
  0
VERTEX
  8
Pin
  10
1.4725
  20
4.7841
  42
1
  0
SEQEND
  0
TEXT
  8
Pin
  10
1.9262
  20
4.4572
  40
0.0292
  41
0.7
  1
2
  50
0.0
  72
0
  73
3
  7
STANDARD
  71
0
  11
1.9262
  21
4.4572
  0
POLYLINE
  8
Pin
  6
CONTINUOUS
  66
1
  70
0
  40
0.0098
  41
0.0098
  0
VERTEX
  8
Pin
  10
1.9
  20
4.4091
  42
0
  0
VERTEX
  8
Pin
  10
2.05
  20
4.4091
  42
0
  0
SEQEND
  0
POLYLINE
  8
Pin
  6
CONTINUOUS
  66
1
  70
0
  40
0.0049
  41
0.0049
  0
VERTEX
  8
Pin
  10
1.8975
  20
4.4091
  42
1
  0
VERTEX
  8
Pin
  10
1.9025
  20
4.4091
  42
1
  0
VERTEX
  8
Pin
  10
1.8975
  20
4.4091
  42
1
  0
SEQEND
  0
POLYLINE
  8
Pin
  6
CONTINUOUS
  66
1
  70
0
  40
0.0049
  41
0.0049
  0
VERTEX
  8
Pin
  10
2.0475
  20
4.4091
  42
1
  0
VERTEX
  8
Pin
  10
2.0525
  20
4.4091
  42
1
  0
VERTEX
  8
Pin
  10
2.0475
  20
4.4091
  42
1
  0
SEQEND
  0
TEXT
  8
Pin
  10
1.5524
  20
4.4572
  40
0.0292
  41
0.7
  1
1
  50
0.0
  72
0
  73
3
  7
STANDARD
  71
0
  11
1.5524
  21
4.4572
  0
POLYLINE
  8
Pin
  6
CONTINUOUS
  66
1
  70
0
  40
0.0098
  41
0.0098
  0
VERTEX
  8
Pin
  10
1.6
  20
4.4091
  42
0
  0
VERTEX
  8
Pin
  10
1.45
  20
4.4091
  42
0
  0
SEQEND
  0
POLYLINE
  8
Pin
  6
CONTINUOUS
  66
1
  70
0
  40
0.0049
  41
0.0049
  0
VERTEX
  8
Pin
  10
1.5975
  20
4.4091
  42
1
  0
VERTEX
  8
Pin
  10
1.6025
  20
4.4091
  42
1
  0
VERTEX
  8
Pin
  10
1.5975
  20
4.4091
  42
1
  0
SEQEND
  0
POLYLINE
  8
Pin
  6
CONTINUOUS
  66
1
  70
0
  40
0.0049
  41
0.0049
  0
VERTEX
  8
Pin
  10
1.4475
  20
4.4091
  42
1
  0
VERTEX
  8
Pin
  10
1.4525
  20
4.4091
  42
1
  0
VERTEX
  8
Pin
  10
1.4475
  20
4.4091
  42
1
  0
SEQEND
  0
TEXT
  8
Pin
  10
1.9512
  20
3.5322
  40
0.0292
  41
0.7
  1
2
  50
0.0
  72
0
  73
3
  7
STANDARD
  71
0
  11
1.9512
  21
3.5322
  0
POLYLINE
  8
Pin
  6
CONTINUOUS
  66
1
  70
0
  40
0.0098
  41
0.0098
  0
VERTEX
  8
Pin
  10
1.925
  20
3.4841
  42
0
  0
VERTEX
  8
Pin
  10
2.075
  20
3.4841
  42
0
  0
SEQEND
  0
POLYLINE
  8
Pin
  6
CONTINUOUS
  66
1
  70
0
  40
0.0049
  41
0.0049
  0
VERTEX
  8
Pin
  10
1.9225
  20
3.4841
  42
1
  0
VERTEX
  8
Pin
  10
1.9275
  20
3.4841
  42
1
  0
VERTEX
  8
Pin
  10
1.9225
  20
3.4841
  42
1
  0
SEQEND
  0
POLYLINE
  8
Pin
  6
CONTINUOUS
  66
1
  70
0
  40
0.0049
  41
0.0049
  0
VERTEX
  8
Pin
  10
2.0725
  20
3.4841
  42
1
  0
VERTEX
  8
Pin
  10
2.0775
  20
3.4841
  42
1
  0
VERTEX
  8
Pin
  10
2.0725
  20
3.4841
  42
1
  0
SEQEND
  0
TEXT
  8
Pin
  10
1.5774
  20
3.5322
  40
0.0292
  41
0.7
  1
1
  50
0.0
  72
0
  73
3
  7
STANDARD
  71
0
  11
1.5774
  21
3.5322
  0
POLYLINE
  8
Pin
  6
CONTINUOUS
  66
1
  70
0
  40
0.0098
  41
0.0098
  0
VERTEX
  8
Pin
  10
1.625
  20
3.4841
  42
0
  0
VERTEX
  8
Pin
  10
1.475
  20
3.4841
  42
0
  0
SEQEND
  0
POLYLINE
  8
Pin
  6
CONTINUOUS
  66
1
  70
0
  40
0.0049
  41
0.0049
  0
VERTEX
  8
Pin
  10
1.6225
  20
3.4841
  42
1
  0
VERTEX
  8
Pin
  10
1.6275
  20
3.4841
  42
1
  0
VERTEX
  8
Pin
  10
1.6225
  20
3.4841
  42
1
  0
SEQEND
  0
POLYLINE
  8
Pin
  6
CONTINUOUS
  66
1
  70
0
  40
0.0049
  41
0.0049
  0
VERTEX
  8
Pin
  10
1.4725
  20
3.4841
  42
1
  0
VERTEX
  8
Pin
  10
1.4775
  20
3.4841
  42
1
  0
VERTEX
  8
Pin
  10
1.4725
  20
3.4841
  42
1
  0
SEQEND
  0
TEXT
  8
Pin
  10
1.9262
  20
3.0322
  40
0.0292
  41
0.7
  1
2
  50
0.0
  72
0
  73
3
  7
STANDARD
  71
0
  11
1.9262
  21
3.0322
  0
POLYLINE
  8
Pin
  6
CONTINUOUS
  66
1
  70
0
  40
0.0098
  41
0.0098
  0
VERTEX
  8
Pin
  10
1.9
  20
2.9841
  42
0
  0
VERTEX
  8
Pin
  10
2.05
  20
2.9841
  42
0
  0
SEQEND
  0
POLYLINE
  8
Pin
  6
CONTINUOUS
  66
1
  70
0
  40
0.0049
  41
0.0049
  0
VERTEX
  8
Pin
  10
1.8975
  20
2.9841
  42
1
  0
VERTEX
  8
Pin
  10
1.9025
  20
2.9841
  42
1
  0
VERTEX
  8
Pin
  10
1.8975
  20
2.9841
  42
1
  0
SEQEND
  0
POLYLINE
  8
Pin
  6
CONTINUOUS
  66
1
  70
0
  40
0.0049
  41
0.0049
  0
VERTEX
  8
Pin
  10
2.0475
  20
2.9841
  42
1
  0
VERTEX
  8
Pin
  10
2.0525
  20
2.9841
  42
1
  0
VERTEX
  8
Pin
  10
2.0475
  20
2.9841
  42
1
  0
SEQEND
  0
TEXT
  8
Pin
  10
1.5524
  20
3.0322
  40
0.0292
  41
0.7
  1
1
  50
0.0
  72
0
  73
3
  7
STANDARD
  71
0
  11
1.5524
  21
3.0322
  0
POLYLINE
  8
Pin
  6
CONTINUOUS
  66
1
  70
0
  40
0.0098
  41
0.0098
  0
VERTEX
  8
Pin
  10
1.6
  20
2.9841
  42
0
  0
VERTEX
  8
Pin
  10
1.45
  20
2.9841
  42
0
  0
SEQEND
  0
POLYLINE
  8
Pin
  6
CONTINUOUS
  66
1
  70
0
  40
0.0049
  41
0.0049
  0
VERTEX
  8
Pin
  10
1.5975
  20
2.9841
  42
1
  0
VERTEX
  8
Pin
  10
1.6025
  20
2.9841
  42
1
  0
VERTEX
  8
Pin
  10
1.5975
  20
2.9841
  42
1
  0
SEQEND
  0
POLYLINE
  8
Pin
  6
CONTINUOUS
  66
1
  70
0
  40
0.0049
  41
0.0049
  0
VERTEX
  8
Pin
  10
1.4475
  20
2.9841
  42
1
  0
VERTEX
  8
Pin
  10
1.4525
  20
2.9841
  42
1
  0
VERTEX
  8
Pin
  10
1.4475
  20
2.9841
  42
1
  0
SEQEND
  0
TEXT
  8
Pin
  10
1.9262
  20
2.2322
  40
0.0292
  41
0.7
  1
2
  50
0.0
  72
0
  73
3
  7
STANDARD
  71
0
  11
1.9262
  21
2.2322
  0
POLYLINE
  8
Pin
  6
CONTINUOUS
  66
1
  70
0
  40
0.0098
  41
0.0098
  0
VERTEX
  8
Pin
  10
1.9
  20
2.1841
  42
0
  0
VERTEX
  8
Pin
  10
2.05
  20
2.1841
  42
0
  0
SEQEND
  0
POLYLINE
  8
Pin
  6
CONTINUOUS
  66
1
  70
0
  40
0.0049
  41
0.0049
  0
VERTEX
  8
Pin
  10
1.8975
  20
2.1841
  42
1
  0
VERTEX
  8
Pin
  10
1.9025
  20
2.1841
  42
1
  0
VERTEX
  8
Pin
  10
1.8975
  20
2.1841
  42
1
  0
SEQEND
  0
POLYLINE
  8
Pin
  6
CONTINUOUS
  66
1
  70
0
  40
0.0049
  41
0.0049
  0
VERTEX
  8
Pin
  10
2.0475
  20
2.1841
  42
1
  0
VERTEX
  8
Pin
  10
2.0525
  20
2.1841
  42
1
  0
VERTEX
  8
Pin
  10
2.0475
  20
2.1841
  42
1
  0
SEQEND
  0
TEXT
  8
Pin
  10
1.5524
  20
2.2322
  40
0.0292
  41
0.7
  1
1
  50
0.0
  72
0
  73
3
  7
STANDARD
  71
0
  11
1.5524
  21
2.2322
  0
POLYLINE
  8
Pin
  6
CONTINUOUS
  66
1
  70
0
  40
0.0098
  41
0.0098
  0
VERTEX
  8
Pin
  10
1.6
  20
2.1841
  42
0
  0
VERTEX
  8
Pin
  10
1.45
  20
2.1841
  42
0
  0
SEQEND
  0
POLYLINE
  8
Pin
  6
CONTINUOUS
  66
1
  70
0
  40
0.0049
  41
0.0049
  0
VERTEX
  8
Pin
  10
1.5975
  20
2.1841
  42
1
  0
VERTEX
  8
Pin
  10
1.6025
  20
2.1841
  42
1
  0
VERTEX
  8
Pin
  10
1.5975
  20
2.1841
  42
1
  0
SEQEND
  0
POLYLINE
  8
Pin
  6
CONTINUOUS
  66
1
  70
0
  40
0.0049
  41
0.0049
  0
VERTEX
  8
Pin
  10
1.4475
  20
2.1841
  42
1
  0
VERTEX
  8
Pin
  10
1.4525
  20
2.1841
  42
1
  0
VERTEX
  8
Pin
  10
1.4475
  20
2.1841
  42
1
  0
SEQEND
  0
TEXT
  8
Pin
  10
1.9012
  20
1.8322
  40
0.0292
  41
0.7
  1
2
  50
0.0
  72
0
  73
3
  7
STANDARD
  71
0
  11
1.9012
  21
1.8322
  0
POLYLINE
  8
Pin
  6
CONTINUOUS
  66
1
  70
0
  40
0.0098
  41
0.0098
  0
VERTEX
  8
Pin
  10
1.875
  20
1.7841
  42
0
  0
VERTEX
  8
Pin
  10
2.025
  20
1.7841
  42
0
  0
SEQEND
  0
POLYLINE
  8
Pin
  6
CONTINUOUS
  66
1
  70
0
  40
0.0049
  41
0.0049
  0
VERTEX
  8
Pin
  10
1.8725
  20
1.7841
  42
1
  0
VERTEX
  8
Pin
  10
1.8775
  20
1.7841
  42
1
  0
VERTEX
  8
Pin
  10
1.8725
  20
1.7841
  42
1
  0
SEQEND
  0
POLYLINE
  8
Pin
  6
CONTINUOUS
  66
1
  70
0
  40
0.0049
  41
0.0049
  0
VERTEX
  8
Pin
  10
2.0225
  20
1.7841
  42
1
  0
VERTEX
  8
Pin
  10
2.0275
  20
1.7841
  42
1
  0
VERTEX
  8
Pin
  10
2.0225
  20
1.7841
  42
1
  0
SEQEND
  0
TEXT
  8
Pin
  10
1.5274
  20
1.8322
  40
0.0292
  41
0.7
  1
1
  50
0.0
  72
0
  73
3
  7
STANDARD
  71
0
  11
1.5274
  21
1.8322
  0
POLYLINE
  8
Pin
  6
CONTINUOUS
  66
1
  70
0
  40
0.0098
  41
0.0098
  0
VERTEX
  8
Pin
  10
1.575
  20
1.7841
  42
0
  0
VERTEX
  8
Pin
  10
1.425
  20
1.7841
  42
0
  0
SEQEND
  0
POLYLINE
  8
Pin
  6
CONTINUOUS
  66
1
  70
0
  40
0.0049
  41
0.0049
  0
VERTEX
  8
Pin
  10
1.5725
  20
1.7841
  42
1
  0
VERTEX
  8
Pin
  10
1.5775
  20
1.7841
  42
1
  0
VERTEX
  8
Pin
  10
1.5725
  20
1.7841
  42
1
  0
SEQEND
  0
POLYLINE
  8
Pin
  6
CONTINUOUS
  66
1
  70
0
  40
0.0049
  41
0.0049
  0
VERTEX
  8
Pin
  10
1.4225
  20
1.7841
  42
1
  0
VERTEX
  8
Pin
  10
1.4275
  20
1.7841
  42
1
  0
VERTEX
  8
Pin
  10
1.4225
  20
1.7841
  42
1
  0
SEQEND
  0
TEXT
  8
Pin
  10
1.9512
  20
0.9822
  40
0.0292
  41
0.7
  1
2
  50
0.0
  72
0
  73
3
  7
STANDARD
  71
0
  11
1.9512
  21
0.9822
  0
POLYLINE
  8
Pin
  6
CONTINUOUS
  66
1
  70
0
  40
0.0098
  41
0.0098
  0
VERTEX
  8
Pin
  10
1.925
  20
0.9341
  42
0
  0
VERTEX
  8
Pin
  10
2.075
  20
0.9341
  42
0
  0
SEQEND
  0
POLYLINE
  8
Pin
  6
CONTINUOUS
  66
1
  70
0
  40
0.0049
  41
0.0049
  0
VERTEX
  8
Pin
  10
1.9225
  20
0.9341
  42
1
  0
VERTEX
  8
Pin
  10
1.9275
  20
0.9341
  42
1
  0
VERTEX
  8
Pin
  10
1.9225
  20
0.9341
  42
1
  0
SEQEND
  0
POLYLINE
  8
Pin
  6
CONTINUOUS
  66
1
  70
0
  40
0.0049
  41
0.0049
  0
VERTEX
  8
Pin
  10
2.0725
  20
0.9341
  42
1
  0
VERTEX
  8
Pin
  10
2.0775
  20
0.9341
  42
1
  0
VERTEX
  8
Pin
  10
2.0725
  20
0.9341
  42
1
  0
SEQEND
  0
TEXT
  8
Pin
  10
1.5774
  20
0.9822
  40
0.0292
  41
0.7
  1
1
  50
0.0
  72
0
  73
3
  7
STANDARD
  71
0
  11
1.5774
  21
0.9822
  0
POLYLINE
  8
Pin
  6
CONTINUOUS
  66
1
  70
0
  40
0.0098
  41
0.0098
  0
VERTEX
  8
Pin
  10
1.625
  20
0.9341
  42
0
  0
VERTEX
  8
Pin
  10
1.475
  20
0.9341
  42
0
  0
SEQEND
  0
POLYLINE
  8
Pin
  6
CONTINUOUS
  66
1
  70
0
  40
0.0049
  41
0.0049
  0
VERTEX
  8
Pin
  10
1.6225
  20
0.9341
  42
1
  0
VERTEX
  8
Pin
  10
1.6275
  20
0.9341
  42
1
  0
VERTEX
  8
Pin
  10
1.6225
  20
0.9341
  42
1
  0
SEQEND
  0
POLYLINE
  8
Pin
  6
CONTINUOUS
  66
1
  70
0
  40
0.0049
  41
0.0049
  0
VERTEX
  8
Pin
  10
1.4725
  20
0.9341
  42
1
  0
VERTEX
  8
Pin
  10
1.4775
  20
0.9341
  42
1
  0
VERTEX
  8
Pin
  10
1.4725
  20
0.9341
  42
1
  0
SEQEND
  0
TEXT
  8
Pin
  10
1.9512
  20
0.5572
  40
0.0292
  41
0.7
  1
2
  50
0.0
  72
0
  73
3
  7
STANDARD
  71
0
  11
1.9512
  21
0.5572
  0
POLYLINE
  8
Pin
  6
CONTINUOUS
  66
1
  70
0
  40
0.0098
  41
0.0098
  0
VERTEX
  8
Pin
  10
1.925
  20
0.5091
  42
0
  0
VERTEX
  8
Pin
  10
2.075
  20
0.5091
  42
0
  0
SEQEND
  0
POLYLINE
  8
Pin
  6
CONTINUOUS
  66
1
  70
0
  40
0.0049
  41
0.0049
  0
VERTEX
  8
Pin
  10
1.9225
  20
0.5091
  42
1
  0
VERTEX
  8
Pin
  10
1.9275
  20
0.5091
  42
1
  0
VERTEX
  8
Pin
  10
1.9225
  20
0.5091
  42
1
  0
SEQEND
  0
POLYLINE
  8
Pin
  6
CONTINUOUS
  66
1
  70
0
  40
0.0049
  41
0.0049
  0
VERTEX
  8
Pin
  10
2.0725
  20
0.5091
  42
1
  0
VERTEX
  8
Pin
  10
2.0775
  20
0.5091
  42
1
  0
VERTEX
  8
Pin
  10
2.0725
  20
0.5091
  42
1
  0
SEQEND
  0
TEXT
  8
Pin
  10
1.5774
  20
0.5572
  40
0.0292
  41
0.7
  1
1
  50
0.0
  72
0
  73
3
  7
STANDARD
  71
0
  11
1.5774
  21
0.5572
  0
POLYLINE
  8
Pin
  6
CONTINUOUS
  66
1
  70
0
  40
0.0098
  41
0.0098
  0
VERTEX
  8
Pin
  10
1.625
  20
0.5091
  42
0
  0
VERTEX
  8
Pin
  10
1.475
  20
0.5091
  42
0
  0
SEQEND
  0
POLYLINE
  8
Pin
  6
CONTINUOUS
  66
1
  70
0
  40
0.0049
  41
0.0049
  0
VERTEX
  8
Pin
  10
1.6225
  20
0.5091
  42
1
  0
VERTEX
  8
Pin
  10
1.6275
  20
0.5091
  42
1
  0
VERTEX
  8
Pin
  10
1.6225
  20
0.5091
  42
1
  0
SEQEND
  0
POLYLINE
  8
Pin
  6
CONTINUOUS
  66
1
  70
0
  40
0.0049
  41
0.0049
  0
VERTEX
  8
Pin
  10
1.4725
  20
0.5091
  42
1
  0
VERTEX
  8
Pin
  10
1.4775
  20
0.5091
  42
1
  0
VERTEX
  8
Pin
  10
1.4725
  20
0.5091
  42
1
  0
SEQEND
  0
TEXT
  8
Pin
  10
4.5024
  20
4.6072
  40
0.0292
  41
0.7
  1
1
  50
0.0
  72
0
  73
3
  7
STANDARD
  71
0
  11
4.5024
  21
4.6072
  0
POLYLINE
  8
Pin
  6
CONTINUOUS
  66
1
  70
0
  40
0.0098
  41
0.0098
  0
VERTEX
  8
Pin
  10
4.55
  20
4.5591
  42
0
  0
VERTEX
  8
Pin
  10
4.4
  20
4.5591
  42
0
  0
SEQEND
  0
POLYLINE
  8
Pin
  6
CONTINUOUS
  66
1
  70
0
  40
0.0049
  41
0.0049
  0
VERTEX
  8
Pin
  10
4.5475
  20
4.5591
  42
1
  0
VERTEX
  8
Pin
  10
4.5525
  20
4.5591
  42
1
  0
VERTEX
  8
Pin
  10
4.5475
  20
4.5591
  42
1
  0
SEQEND
  0
POLYLINE
  8
Pin
  6
CONTINUOUS
  66
1
  70
0
  40
0.0049
  41
0.0049
  0
VERTEX
  8
Pin
  10
4.3975
  20
4.5591
  42
1
  0
VERTEX
  8
Pin
  10
4.4025
  20
4.5591
  42
1
  0
VERTEX
  8
Pin
  10
4.3975
  20
4.5591
  42
1
  0
SEQEND
  0
TEXT
  8
Pin
  10
4.5274
  20
4.9572
  40
0.0292
  41
0.7
  1
2
  50
0.0
  72
0
  73
3
  7
STANDARD
  71
0
  11
4.5274
  21
4.9572
  0
POLYLINE
  8
Pin
  6
CONTINUOUS
  66
1
  70
0
  40
0.0098
  41
0.0098
  0
VERTEX
  8
Pin
  10
4.575
  20
4.9091
  42
0
  0
VERTEX
  8
Pin
  10
4.425
  20
4.9091
  42
0
  0
SEQEND
  0
POLYLINE
  8
Pin
  6
CONTINUOUS
  66
1
  70
0
  40
0.0049
  41
0.0049
  0
VERTEX
  8
Pin
  10
4.5725
  20
4.9091
  42
1
  0
VERTEX
  8
Pin
  10
4.5775
  20
4.9091
  42
1
  0
VERTEX
  8
Pin
  10
4.5725
  20
4.9091
  42
1
  0
SEQEND
  0
POLYLINE
  8
Pin
  6
CONTINUOUS
  66
1
  70
0
  40
0.0049
  41
0.0049
  0
VERTEX
  8
Pin
  10
4.4225
  20
4.9091
  42
1
  0
VERTEX
  8
Pin
  10
4.4275
  20
4.9091
  42
1
  0
VERTEX
  8
Pin
  10
4.4225
  20
4.9091
  42
1
  0
SEQEND
  0
TEXT
  8
Pin
  10
4.5524
  20
3.7322
  40
0.0292
  41
0.7
  1
3
  50
0.0
  72
0
  73
3
  7
STANDARD
  71
0
  11
4.5524
  21
3.7322
  0
POLYLINE
  8
Pin
  6
CONTINUOUS
  66
1
  70
0
  40
0.0098
  41
0.0098
  0
VERTEX
  8
Pin
  10
4.6
  20
3.6841
  42
0
  0
VERTEX
  8
Pin
  10
4.45
  20
3.6841
  42
0
  0
SEQEND
  0
POLYLINE
  8
Pin
  6
CONTINUOUS
  66
1
  70
0
  40
0.0049
  41
0.0049
  0
VERTEX
  8
Pin
  10
4.5975
  20
3.6841
  42
1
  0
VERTEX
  8
Pin
  10
4.6025
  20
3.6841
  42
1
  0
VERTEX
  8
Pin
  10
4.5975
  20
3.6841
  42
1
  0
SEQEND
  0
POLYLINE
  8
Pin
  6
CONTINUOUS
  66
1
  70
0
  40
0.0049
  41
0.0049
  0
VERTEX
  8
Pin
  10
4.4475
  20
3.6841
  42
1
  0
VERTEX
  8
Pin
  10
4.4525
  20
3.6841
  42
1
  0
VERTEX
  8
Pin
  10
4.4475
  20
3.6841
  42
1
  0
SEQEND
  0
TEXT
  8
Pin
  10
4.5524
  20
4.1822
  40
0.0292
  41
0.7
  1
4
  50
0.0
  72
0
  73
3
  7
STANDARD
  71
0
  11
4.5524
  21
4.1822
  0
POLYLINE
  8
Pin
  6
CONTINUOUS
  66
1
  70
0
  40
0.0098
  41
0.0098
  0
VERTEX
  8
Pin
  10
4.6
  20
4.1341
  42
0
  0
VERTEX
  8
Pin
  10
4.45
  20
4.1341
  42
0
  0
SEQEND
  0
POLYLINE
  8
Pin
  6
CONTINUOUS
  66
1
  70
0
  40
0.0049
  41
0.0049
  0
VERTEX
  8
Pin
  10
4.5975
  20
4.1341
  42
1
  0
VERTEX
  8
Pin
  10
4.6025
  20
4.1341
  42
1
  0
VERTEX
  8
Pin
  10
4.5975
  20
4.1341
  42
1
  0
SEQEND
  0
POLYLINE
  8
Pin
  6
CONTINUOUS
  66
1
  70
0
  40
0.0049
  41
0.0049
  0
VERTEX
  8
Pin
  10
4.4475
  20
4.1341
  42
1
  0
VERTEX
  8
Pin
  10
4.4525
  20
4.1341
  42
1
  0
VERTEX
  8
Pin
  10
4.4475
  20
4.1341
  42
1
  0
SEQEND
  0
TEXT
  8
Pin
  10
4.5774
  20
2.8572
  40
0.0292
  41
0.7
  1
5
  50
0.0
  72
0
  73
3
  7
STANDARD
  71
0
  11
4.5774
  21
2.8572
  0
POLYLINE
  8
Pin
  6
CONTINUOUS
  66
1
  70
0
  40
0.0098
  41
0.0098
  0
VERTEX
  8
Pin
  10
4.625
  20
2.8091
  42
0
  0
VERTEX
  8
Pin
  10
4.475
  20
2.8091
  42
0
  0
SEQEND
  0
POLYLINE
  8
Pin
  6
CONTINUOUS
  66
1
  70
0
  40
0.0049
  41
0.0049
  0
VERTEX
  8
Pin
  10
4.6225
  20
2.8091
  42
1
  0
VERTEX
  8
Pin
  10
4.6275
  20
2.8091
  42
1
  0
VERTEX
  8
Pin
  10
4.6225
  20
2.8091
  42
1
  0
SEQEND
  0
POLYLINE
  8
Pin
  6
CONTINUOUS
  66
1
  70
0
  40
0.0049
  41
0.0049
  0
VERTEX
  8
Pin
  10
4.4725
  20
2.8091
  42
1
  0
VERTEX
  8
Pin
  10
4.4775
  20
2.8091
  42
1
  0
VERTEX
  8
Pin
  10
4.4725
  20
2.8091
  42
1
  0
SEQEND
  0
TEXT
  8
Pin
  10
4.5524
  20
3.2322
  40
0.0292
  41
0.7
  1
6
  50
0.0
  72
0
  73
3
  7
STANDARD
  71
0
  11
4.5524
  21
3.2322
  0
POLYLINE
  8
Pin
  6
CONTINUOUS
  66
1
  70
0
  40
0.0098
  41
0.0098
  0
VERTEX
  8
Pin
  10
4.6
  20
3.1841
  42
0
  0
VERTEX
  8
Pin
  10
4.45
  20
3.1841
  42
0
  0
SEQEND
  0
POLYLINE
  8
Pin
  6
CONTINUOUS
  66
1
  70
0
  40
0.0049
  41
0.0049
  0
VERTEX
  8
Pin
  10
4.5975
  20
3.1841
  42
1
  0
VERTEX
  8
Pin
  10
4.6025
  20
3.1841
  42
1
  0
VERTEX
  8
Pin
  10
4.5975
  20
3.1841
  42
1
  0
SEQEND
  0
POLYLINE
  8
Pin
  6
CONTINUOUS
  66
1
  70
0
  40
0.0049
  41
0.0049
  0
VERTEX
  8
Pin
  10
4.4475
  20
3.1841
  42
1
  0
VERTEX
  8
Pin
  10
4.4525
  20
3.1841
  42
1
  0
VERTEX
  8
Pin
  10
4.4475
  20
3.1841
  42
1
  0
SEQEND
  0
TEXT
  8
Pin
  10
4.5774
  20
1.9572
  40
0.0292
  41
0.7
  1
7
  50
0.0
  72
0
  73
3
  7
STANDARD
  71
0
  11
4.5774
  21
1.9572
  0
POLYLINE
  8
Pin
  6
CONTINUOUS
  66
1
  70
0
  40
0.0098
  41
0.0098
  0
VERTEX
  8
Pin
  10
4.625
  20
1.9091
  42
0
  0
VERTEX
  8
Pin
  10
4.475
  20
1.9091
  42
0
  0
SEQEND
  0
POLYLINE
  8
Pin
  6
CONTINUOUS
  66
1
  70
0
  40
0.0049
  41
0.0049
  0
VERTEX
  8
Pin
  10
4.6225
  20
1.9091
  42
1
  0
VERTEX
  8
Pin
  10
4.6275
  20
1.9091
  42
1
  0
VERTEX
  8
Pin
  10
4.6225
  20
1.9091
  42
1
  0
SEQEND
  0
POLYLINE
  8
Pin
  6
CONTINUOUS
  66
1
  70
0
  40
0.0049
  41
0.0049
  0
VERTEX
  8
Pin
  10
4.4725
  20
1.9091
  42
1
  0
VERTEX
  8
Pin
  10
4.4775
  20
1.9091
  42
1
  0
VERTEX
  8
Pin
  10
4.4725
  20
1.9091
  42
1
  0
SEQEND
  0
TEXT
  8
Pin
  10
4.5274
  20
2.3072
  40
0.0292
  41
0.7
  1
8
  50
0.0
  72
0
  73
3
  7
STANDARD
  71
0
  11
4.5274
  21
2.3072
  0
POLYLINE
  8
Pin
  6
CONTINUOUS
  66
1
  70
0
  40
0.0098
  41
0.0098
  0
VERTEX
  8
Pin
  10
4.575
  20
2.2591
  42
0
  0
VERTEX
  8
Pin
  10
4.425
  20
2.2591
  42
0
  0
SEQEND
  0
POLYLINE
  8
Pin
  6
CONTINUOUS
  66
1
  70
0
  40
0.0049
  41
0.0049
  0
VERTEX
  8
Pin
  10
4.5725
  20
2.2591
  42
1
  0
VERTEX
  8
Pin
  10
4.5775
  20
2.2591
  42
1
  0
VERTEX
  8
Pin
  10
4.5725
  20
2.2591
  42
1
  0
SEQEND
  0
POLYLINE
  8
Pin
  6
CONTINUOUS
  66
1
  70
0
  40
0.0049
  41
0.0049
  0
VERTEX
  8
Pin
  10
4.4225
  20
2.2591
  42
1
  0
VERTEX
  8
Pin
  10
4.4275
  20
2.2591
  42
1
  0
VERTEX
  8
Pin
  10
4.4225
  20
2.2591
  42
1
  0
SEQEND
  0
POLYLINE
  8
Titles
  6
CONTINUOUS
  66
1
  70
0
  40
0.0131
  41
0.0131
  0
VERTEX
  8
Titles
  10
9.5
  20
-2.0359
  42
0
  0
VERTEX
  8
Titles
  10
-0.5
  20
-2.0359
  42
0
  0
VERTEX
  8
Titles
  10
-0.5
  20
5.2041
  42
0
  0
VERTEX
  8
Titles
  10
9.5
  20
5.2041
  42
0
  0
VERTEX
  8
Titles
  10
9.5
  20
-2.0359
  42
0
  0
SEQEND
  0
TEXT
  8
Titles
  10
4.25
  20
-0.6688
  40
0.0656
  41
0.7
  1
High Speed
  50
0.0
  72
1
  73
3
  7
STANDARD
  71
0
  11
4.25
  21
-0.6688
  0
TEXT
  8
Titles
  10
4.25
  20
-0.7869
  40
0.0656
  41
0.7
  1
Prop-to-Prop
  50
0.0
  72
1
  73
3
  7
STANDARD
  71
0
  11
4.25
  21
-0.7869
  0
TEXT
  8
Titles
  10
4.25
  20
-0.905
  40
0.0656
  41
0.7
  1
Interface
  50
0.0
  72
1
  73
3
  7
STANDARD
  71
0
  11
4.25
  21
-0.905
  0
TEXT
  8
Titles
  10
5.2894
  20
-0.4178
  40
0.0656
  41
0.7
  1
Version 1
  50
0.0
  72
0
  73
3
  7
STANDARD
  71
0
  11
5.2894
  21
-0.4178
  0
TEXT
  8
Titles
  10
5.2894
  20
-0.5359
  40
0.0656
  41
0.7
  1
sgMoore
  50
0.0
  72
0
  73
3
  7
STANDARD
  71
0
  11
5.2894
  21
-0.5359
  0
TEXT
  8
Titles
  10
5.44
  20
-1.491
  40
0.0583
  41
0.7
  1
SIZE
  50
0.0
  72
1
  73
3
  7
STANDARD
  71
0
  11
5.44
  21
-1.491
  0
TEXT
  8
Titles
  10
5.44
  20
-1.5959
  40
0.0583
  41
0.7
  1
 
  50
0.0
  72
1
  73
3
  7
STANDARD
  71
0
  11
5.44
  21
-1.5959
  0
TEXT
  8
Titles
  10
5.6694
  20
-1.491
  40
0.0583
  41
0.7
  1
FSCM NO.
  50
0.0
  72
0
  73
3
  7
STANDARD
  71
0
  11
5.6694
  21
-1.491
  0
TEXT
  8
Titles
  10
5.6694
  20
-1.5959
  40
0.0583
  41
0.7
  1
 
  50
0.0
  72
0
  73
3
  7
STANDARD
  71
0
  11
5.6694
  21
-1.5959
  0
TEXT
  8
Titles
  10
6.7894
  20
-1.491
  40
0.0583
  41
0.7
  1
DWG NO.
  50
0.0
  72
0
  73
3
  7
STANDARD
  71
0
  11
6.7894
  21
-1.491
  0
TEXT
  8
Titles
  10
6.7894
  20
-1.5959
  40
0.0583
  41
0.7
  1
 
  50
0.0
  72
0
  73
3
  7
STANDARD
  71
0
  11
6.7894
  21
-1.5959
  0
TEXT
  8
Titles
  10
9.31
  20
-1.491
  40
0.0583
  41
0.7
  1
REV
  50
0.0
  72
1
  73
3
  7
STANDARD
  71
0
  11
9.31
  21
-1.491
  0
TEXT
  8
Titles
  10
9.31
  20
-1.5959
  40
0.0583
  41
0.7
  1
 
  50
0.0
  72
1
  73
3
  7
STANDARD
  71
0
  11
9.31
  21
-1.5959
  0
TEXT
  8
Titles
  10
5.2894
  20
-1.8585
  40
0.0583
  41
0.7
  1
SCALE
  50
0.0
  72
0
  73
3
  7
STANDARD
  71
0
  11
5.2894
  21
-1.8585
  0
TEXT
  8
Titles
  10
7.7894
  20
-1.8585
  40
0.0583
  41
0.7
  1
髓耱
  50
0.0
  72
0
  73
3
  7
STANDARD
  71
0
  11
7.7894
  21
-1.8585
  0
POLYLINE
  8
Titles
  6
CONTINUOUS
  66
1
  70
0
  40
0.0131
  41
0.0131
  0
VERTEX
  8
Titles
  10
3.25
  20
-0.2859
  42
0
  0
VERTEX
  8
Titles
  10
5.25
  20
-0.2859
  42
0
  0
SEQEND
  0
POLYLINE
  8
Titles
  6
CONTINUOUS
  66
1
  70
0
  40
0.0131
  41
0.0131
  0
VERTEX
  8
Titles
  10
3.25
  20
-0.2859
  42
0
  0
VERTEX
  8
Titles
  10
3.25
  20
-0.7859
  42
0
  0
SEQEND
  0
POLYLINE
  8
Titles
  6
CONTINUOUS
  66
1
  70
0
  40
0.0131
  41
0.0131
  0
VERTEX
  8
Titles
  10
5.25
  20
-0.2859
  42
0
  0
VERTEX
  8
Titles
  10
5.25
  20
-0.7859
  42
0
  0
SEQEND
  0
POLYLINE
  8
Titles
  6
CONTINUOUS
  66
1
  70
0
  40
0.0131
  41
0.0131
  0
VERTEX
  8
Titles
  10
3.25
  20
-1.4059
  42
0
  0
VERTEX
  8
Titles
  10
5.25
  20
-1.4059
  42
0
  0
SEQEND
  0
POLYLINE
  8
Titles
  6
CONTINUOUS
  66
1
  70
0
  40
0.0131
  41
0.0131
  0
VERTEX
  8
Titles
  10
3.25
  20
-0.7859
  42
0
  0
VERTEX
  8
Titles
  10
3.25
  20
-1.4059
  42
0
  0
SEQEND
  0
POLYLINE
  8
Titles
  6
CONTINUOUS
  66
1
  70
0
  40
0.0131
  41
0.0131
  0
VERTEX
  8
Titles
  10
5.25
  20
-0.7859
  42
0
  0
VERTEX
  8
Titles
  10
5.25
  20
-1.4059
  42
0
  0
SEQEND
  0
POLYLINE
  8
Titles
  6
CONTINUOUS
  66
1
  70
0
  40
0.0131
  41
0.0131
  0
VERTEX
  8
Titles
  10
3.25
  20
-1.4059
  42
0
  0
VERTEX
  8
Titles
  10
5.25
  20
-1.4059
  42
0
  0
SEQEND
  0
POLYLINE
  8
Titles
  6
CONTINUOUS
  66
1
  70
0
  40
0.0131
  41
0.0131
  0
VERTEX
  8
Titles
  10
3.25
  20
-1.7209
  42
0
  0
VERTEX
  8
Titles
  10
5.25
  20
-1.7209
  42
0
  0
SEQEND
  0
POLYLINE
  8
Titles
  6
CONTINUOUS
  66
1
  70
0
  40
0.0131
  41
0.0131
  0
VERTEX
  8
Titles
  10
3.25
  20
-1.4059
  42
0
  0
VERTEX
  8
Titles
  10
3.25
  20
-1.7209
  42
0
  0
SEQEND
  0
POLYLINE
  8
Titles
  6
CONTINUOUS
  66
1
  70
0
  40
0.0131
  41
0.0131
  0
VERTEX
  8
Titles
  10
5.25
  20
-1.4059
  42
0
  0
VERTEX
  8
Titles
  10
5.25
  20
-1.7209
  42
0
  0
SEQEND
  0
POLYLINE
  8
Titles
  6
CONTINUOUS
  66
1
  70
0
  40
0.0131
  41
0.0131
  0
VERTEX
  8
Titles
  10
3.25
  20
-1.7209
  42
0
  0
VERTEX
  8
Titles
  10
5.25
  20
-1.7209
  42
0
  0
SEQEND
  0
POLYLINE
  8
Titles
  6
CONTINUOUS
  66
1
  70
0
  40
0.0131
  41
0.0131
  0
VERTEX
  8
Titles
  10
3.25
  20
-1.7209
  42
0
  0
VERTEX
  8
Titles
  10
3.25
  20
-1.7859
  42
0
  0
SEQEND
  0
POLYLINE
  8
Titles
  6
CONTINUOUS
  66
1
  70
0
  40
0.0131
  41
0.0131
  0
VERTEX
  8
Titles
  10
5.25
  20
-1.7209
  42
0
  0
VERTEX
  8
Titles
  10
5.25
  20
-1.7859
  42
0
  0
SEQEND
  0
POLYLINE
  8
Titles
  6
CONTINUOUS
  66
1
  70
0
  40
0.0131
  41
0.0131
  0
VERTEX
  8
Titles
  10
3.25
  20
-2.0359
  42
0
  0
VERTEX
  8
Titles
  10
5.25
  20
-2.0359
  42
0
  0
SEQEND
  0
POLYLINE
  8
Titles
  6
CONTINUOUS
  66
1
  70
0
  40
0.0131
  41
0.0131
  0
VERTEX
  8
Titles
  10
3.25
  20
-1.7859
  42
0
  0
VERTEX
  8
Titles
  10
3.25
  20
-2.0359
  42
0
  0
SEQEND
  0
POLYLINE
  8
Titles
  6
CONTINUOUS
  66
1
  70
0
  40
0.0131
  41
0.0131
  0
VERTEX
  8
Titles
  10
5.25
  20
-1.7859
  42
0
  0
VERTEX
  8
Titles
  10
5.25
  20
-2.0359
  42
0
  0
SEQEND
  0
POLYLINE
  8
Titles
  6
CONTINUOUS
  66
1
  70
0
  40
0.0131
  41
0.0131
  0
VERTEX
  8
Titles
  10
5.25
  20
-0.2859
  42
0
  0
VERTEX
  8
Titles
  10
5.63
  20
-0.2859
  42
0
  0
SEQEND
  0
POLYLINE
  8
Titles
  6
CONTINUOUS
  66
1
  70
0
  40
0.0131
  41
0.0131
  0
VERTEX
  8
Titles
  10
5.25
  20
-0.7859
  42
0
  0
VERTEX
  8
Titles
  10
5.63
  20
-0.7859
  42
0
  0
SEQEND
  0
POLYLINE
  8
Titles
  6
CONTINUOUS
  66
1
  70
0
  40
0.0131
  41
0.0131
  0
VERTEX
  8
Titles
  10
5.25
  20
-0.2859
  42
0
  0
VERTEX
  8
Titles
  10
5.25
  20
-0.7859
  42
0
  0
SEQEND
  0
POLYLINE
  8
Titles
  6
CONTINUOUS
  66
1
  70
0
  40
0.0131
  41
0.0131
  0
VERTEX
  8
Titles
  10
5.25
  20
-0.7859
  42
0
  0
VERTEX
  8
Titles
  10
5.63
  20
-0.7859
  42
0
  0
SEQEND
  0
POLYLINE
  8
Titles
  6
CONTINUOUS
  66
1
  70
0
  40
0.0131
  41
0.0131
  0
VERTEX
  8
Titles
  10
5.25
  20
-1.4059
  42
0
  0
VERTEX
  8
Titles
  10
5.63
  20
-1.4059
  42
0
  0
SEQEND
  0
POLYLINE
  8
Titles
  6
CONTINUOUS
  66
1
  70
0
  40
0.0131
  41
0.0131
  0
VERTEX
  8
Titles
  10
5.25
  20
-0.7859
  42
0
  0
VERTEX
  8
Titles
  10
5.25
  20
-1.4059
  42
0
  0
SEQEND
  0
POLYLINE
  8
Titles
  6
CONTINUOUS
  66
1
  70
0
  40
0.0131
  41
0.0131
  0
VERTEX
  8
Titles
  10
5.25
  20
-1.4059
  42
0
  0
VERTEX
  8
Titles
  10
5.63
  20
-1.4059
  42
0
  0
SEQEND
  0
POLYLINE
  8
Titles
  6
CONTINUOUS
  66
1
  70
0
  40
0.0131
  41
0.0131
  0
VERTEX
  8
Titles
  10
5.25
  20
-1.4059
  42
0
  0
VERTEX
  8
Titles
  10
5.25
  20
-1.7209
  42
0
  0
SEQEND
  0
POLYLINE
  8
Titles
  6
CONTINUOUS
  66
1
  70
0
  40
0.0131
  41
0.0131
  0
VERTEX
  8
Titles
  10
5.63
  20
-1.4059
  42
0
  0
VERTEX
  8
Titles
  10
5.63
  20
-1.7209
  42
0
  0
SEQEND
  0
POLYLINE
  8
Titles
  6
CONTINUOUS
  66
1
  70
0
  40
0.0131
  41
0.0131
  0
VERTEX
  8
Titles
  10
5.25
  20
-1.7859
  42
0
  0
VERTEX
  8
Titles
  10
5.63
  20
-1.7859
  42
0
  0
SEQEND
  0
POLYLINE
  8
Titles
  6
CONTINUOUS
  66
1
  70
0
  40
0.0131
  41
0.0131
  0
VERTEX
  8
Titles
  10
5.25
  20
-1.7209
  42
0
  0
VERTEX
  8
Titles
  10
5.25
  20
-1.7859
  42
0
  0
SEQEND
  0
POLYLINE
  8
Titles
  6
CONTINUOUS
  66
1
  70
0
  40
0.0131
  41
0.0131
  0
VERTEX
  8
Titles
  10
5.63
  20
-1.7209
  42
0
  0
VERTEX
  8
Titles
  10
5.63
  20
-1.7859
  42
0
  0
SEQEND
  0
POLYLINE
  8
Titles
  6
CONTINUOUS
  66
1
  70
0
  40
0.0131
  41
0.0131
  0
VERTEX
  8
Titles
  10
5.25
  20
-1.7859
  42
0
  0
VERTEX
  8
Titles
  10
5.63
  20
-1.7859
  42
0
  0
SEQEND
  0
POLYLINE
  8
Titles
  6
CONTINUOUS
  66
1
  70
0
  40
0.0131
  41
0.0131
  0
VERTEX
  8
Titles
  10
5.25
  20
-2.0359
  42
0
  0
VERTEX
  8
Titles
  10
5.63
  20
-2.0359
  42
0
  0
SEQEND
  0
POLYLINE
  8
Titles
  6
CONTINUOUS
  66
1
  70
0
  40
0.0131
  41
0.0131
  0
VERTEX
  8
Titles
  10
5.25
  20
-1.7859
  42
0
  0
VERTEX
  8
Titles
  10
5.25
  20
-2.0359
  42
0
  0
SEQEND
  0
POLYLINE
  8
Titles
  6
CONTINUOUS
  66
1
  70
0
  40
0.0131
  41
0.0131
  0
VERTEX
  8
Titles
  10
5.63
  20
-0.2859
  42
0
  0
VERTEX
  8
Titles
  10
6.25
  20
-0.2859
  42
0
  0
SEQEND
  0
POLYLINE
  8
Titles
  6
CONTINUOUS
  66
1
  70
0
  40
0.0131
  41
0.0131
  0
VERTEX
  8
Titles
  10
5.63
  20
-0.7859
  42
0
  0
VERTEX
  8
Titles
  10
6.25
  20
-0.7859
  42
0
  0
SEQEND
  0
POLYLINE
  8
Titles
  6
CONTINUOUS
  66
1
  70
0
  40
0.0131
  41
0.0131
  0
VERTEX
  8
Titles
  10
5.63
  20
-0.7859
  42
0
  0
VERTEX
  8
Titles
  10
6.25
  20
-0.7859
  42
0
  0
SEQEND
  0
POLYLINE
  8
Titles
  6
CONTINUOUS
  66
1
  70
0
  40
0.0131
  41
0.0131
  0
VERTEX
  8
Titles
  10
5.63
  20
-1.4059
  42
0
  0
VERTEX
  8
Titles
  10
6.25
  20
-1.4059
  42
0
  0
SEQEND
  0
POLYLINE
  8
Titles
  6
CONTINUOUS
  66
1
  70
0
  40
0.0131
  41
0.0131
  0
VERTEX
  8
Titles
  10
5.63
  20
-1.4059
  42
0
  0
VERTEX
  8
Titles
  10
6.25
  20
-1.4059
  42
0
  0
SEQEND
  0
POLYLINE
  8
Titles
  6
CONTINUOUS
  66
1
  70
0
  40
0.0131
  41
0.0131
  0
VERTEX
  8
Titles
  10
5.63
  20
-1.4059
  42
0
  0
VERTEX
  8
Titles
  10
5.63
  20
-1.7209
  42
0
  0
SEQEND
  0
POLYLINE
  8
Titles
  6
CONTINUOUS
  66
1
  70
0
  40
0.0131
  41
0.0131
  0
VERTEX
  8
Titles
  10
5.63
  20
-1.7859
  42
0
  0
VERTEX
  8
Titles
  10
6.25
  20
-1.7859
  42
0
  0
SEQEND
  0
POLYLINE
  8
Titles
  6
CONTINUOUS
  66
1
  70
0
  40
0.0131
  41
0.0131
  0
VERTEX
  8
Titles
  10
5.63
  20
-1.7209
  42
0
  0
VERTEX
  8
Titles
  10
5.63
  20
-1.7859
  42
0
  0
SEQEND
  0
POLYLINE
  8
Titles
  6
CONTINUOUS
  66
1
  70
0
  40
0.0131
  41
0.0131
  0
VERTEX
  8
Titles
  10
5.63
  20
-1.7859
  42
0
  0
VERTEX
  8
Titles
  10
6.25
  20
-1.7859
  42
0
  0
SEQEND
  0
POLYLINE
  8
Titles
  6
CONTINUOUS
  66
1
  70
0
  40
0.0131
  41
0.0131
  0
VERTEX
  8
Titles
  10
5.63
  20
-2.0359
  42
0
  0
VERTEX
  8
Titles
  10
6.25
  20
-2.0359
  42
0
  0
SEQEND
  0
POLYLINE
  8
Titles
  6
CONTINUOUS
  66
1
  70
0
  40
0.0131
  41
0.0131
  0
VERTEX
  8
Titles
  10
6.25
  20
-1.7859
  42
0
  0
VERTEX
  8
Titles
  10
6.25
  20
-2.0359
  42
0
  0
SEQEND
  0
POLYLINE
  8
Titles
  6
CONTINUOUS
  66
1
  70
0
  40
0.0131
  41
0.0131
  0
VERTEX
  8
Titles
  10
6.25
  20
-0.2859
  42
0
  0
VERTEX
  8
Titles
  10
6.75
  20
-0.2859
  42
0
  0
SEQEND
  0
POLYLINE
  8
Titles
  6
CONTINUOUS
  66
1
  70
0
  40
0.0131
  41
0.0131
  0
VERTEX
  8
Titles
  10
6.25
  20
-0.7859
  42
0
  0
VERTEX
  8
Titles
  10
6.75
  20
-0.7859
  42
0
  0
SEQEND
  0
POLYLINE
  8
Titles
  6
CONTINUOUS
  66
1
  70
0
  40
0.0131
  41
0.0131
  0
VERTEX
  8
Titles
  10
6.25
  20
-0.7859
  42
0
  0
VERTEX
  8
Titles
  10
6.75
  20
-0.7859
  42
0
  0
SEQEND
  0
POLYLINE
  8
Titles
  6
CONTINUOUS
  66
1
  70
0
  40
0.0131
  41
0.0131
  0
VERTEX
  8
Titles
  10
6.25
  20
-1.4059
  42
0
  0
VERTEX
  8
Titles
  10
6.75
  20
-1.4059
  42
0
  0
SEQEND
  0
POLYLINE
  8
Titles
  6
CONTINUOUS
  66
1
  70
0
  40
0.0131
  41
0.0131
  0
VERTEX
  8
Titles
  10
6.25
  20
-1.4059
  42
0
  0
VERTEX
  8
Titles
  10
6.75
  20
-1.4059
  42
0
  0
SEQEND
  0
POLYLINE
  8
Titles
  6
CONTINUOUS
  66
1
  70
0
  40
0.0131
  41
0.0131
  0
VERTEX
  8
Titles
  10
6.75
  20
-1.4059
  42
0
  0
VERTEX
  8
Titles
  10
6.75
  20
-1.7209
  42
0
  0
SEQEND
  0
POLYLINE
  8
Titles
  6
CONTINUOUS
  66
1
  70
0
  40
0.0131
  41
0.0131
  0
VERTEX
  8
Titles
  10
6.25
  20
-1.7859
  42
0
  0
VERTEX
  8
Titles
  10
6.75
  20
-1.7859
  42
0
  0
SEQEND
  0
POLYLINE
  8
Titles
  6
CONTINUOUS
  66
1
  70
0
  40
0.0131
  41
0.0131
  0
VERTEX
  8
Titles
  10
6.75
  20
-1.7209
  42
0
  0
VERTEX
  8
Titles
  10
6.75
  20
-1.7859
  42
0
  0
SEQEND
  0
POLYLINE
  8
Titles
  6
CONTINUOUS
  66
1
  70
0
  40
0.0131
  41
0.0131
  0
VERTEX
  8
Titles
  10
6.25
  20
-1.7859
  42
0
  0
VERTEX
  8
Titles
  10
6.75
  20
-1.7859
  42
0
  0
SEQEND
  0
POLYLINE
  8
Titles
  6
CONTINUOUS
  66
1
  70
0
  40
0.0131
  41
0.0131
  0
VERTEX
  8
Titles
  10
6.25
  20
-2.0359
  42
0
  0
VERTEX
  8
Titles
  10
6.75
  20
-2.0359
  42
0
  0
SEQEND
  0
POLYLINE
  8
Titles
  6
CONTINUOUS
  66
1
  70
0
  40
0.0131
  41
0.0131
  0
VERTEX
  8
Titles
  10
6.25
  20
-1.7859
  42
0
  0
VERTEX
  8
Titles
  10
6.25
  20
-2.0359
  42
0
  0
SEQEND
  0
POLYLINE
  8
Titles
  6
CONTINUOUS
  66
1
  70
0
  40
0.0131
  41
0.0131
  0
VERTEX
  8
Titles
  10
6.75
  20
-0.2859
  42
0
  0
VERTEX
  8
Titles
  10
7.75
  20
-0.2859
  42
0
  0
SEQEND
  0
POLYLINE
  8
Titles
  6
CONTINUOUS
  66
1
  70
0
  40
0.0131
  41
0.0131
  0
VERTEX
  8
Titles
  10
6.75
  20
-0.7859
  42
0
  0
VERTEX
  8
Titles
  10
7.75
  20
-0.7859
  42
0
  0
SEQEND
  0
POLYLINE
  8
Titles
  6
CONTINUOUS
  66
1
  70
0
  40
0.0131
  41
0.0131
  0
VERTEX
  8
Titles
  10
6.75
  20
-0.7859
  42
0
  0
VERTEX
  8
Titles
  10
7.75
  20
-0.7859
  42
0
  0
SEQEND
  0
POLYLINE
  8
Titles
  6
CONTINUOUS
  66
1
  70
0
  40
0.0131
  41
0.0131
  0
VERTEX
  8
Titles
  10
6.75
  20
-1.4059
  42
0
  0
VERTEX
  8
Titles
  10
7.75
  20
-1.4059
  42
0
  0
SEQEND
  0
POLYLINE
  8
Titles
  6
CONTINUOUS
  66
1
  70
0
  40
0.0131
  41
0.0131
  0
VERTEX
  8
Titles
  10
6.75
  20
-1.4059
  42
0
  0
VERTEX
  8
Titles
  10
7.75
  20
-1.4059
  42
0
  0
SEQEND
  0
POLYLINE
  8
Titles
  6
CONTINUOUS
  66
1
  70
0
  40
0.0131
  41
0.0131
  0
VERTEX
  8
Titles
  10
6.75
  20
-1.4059
  42
0
  0
VERTEX
  8
Titles
  10
6.75
  20
-1.7209
  42
0
  0
SEQEND
  0
POLYLINE
  8
Titles
  6
CONTINUOUS
  66
1
  70
0
  40
0.0131
  41
0.0131
  0
VERTEX
  8
Titles
  10
6.75
  20
-1.7859
  42
0
  0
VERTEX
  8
Titles
  10
7.75
  20
-1.7859
  42
0
  0
SEQEND
  0
POLYLINE
  8
Titles
  6
CONTINUOUS
  66
1
  70
0
  40
0.0131
  41
0.0131
  0
VERTEX
  8
Titles
  10
6.75
  20
-1.7209
  42
0
  0
VERTEX
  8
Titles
  10
6.75
  20
-1.7859
  42
0
  0
SEQEND
  0
POLYLINE
  8
Titles
  6
CONTINUOUS
  66
1
  70
0
  40
0.0131
  41
0.0131
  0
VERTEX
  8
Titles
  10
6.75
  20
-1.7859
  42
0
  0
VERTEX
  8
Titles
  10
7.75
  20
-1.7859
  42
0
  0
SEQEND
  0
POLYLINE
  8
Titles
  6
CONTINUOUS
  66
1
  70
0
  40
0.0131
  41
0.0131
  0
VERTEX
  8
Titles
  10
6.75
  20
-2.0359
  42
0
  0
VERTEX
  8
Titles
  10
7.75
  20
-2.0359
  42
0
  0
SEQEND
  0
POLYLINE
  8
Titles
  6
CONTINUOUS
  66
1
  70
0
  40
0.0131
  41
0.0131
  0
VERTEX
  8
Titles
  10
7.75
  20
-1.7859
  42
0
  0
VERTEX
  8
Titles
  10
7.75
  20
-2.0359
  42
0
  0
SEQEND
  0
POLYLINE
  8
Titles
  6
CONTINUOUS
  66
1
  70
0
  40
0.0131
  41
0.0131
  0
VERTEX
  8
Titles
  10
7.75
  20
-0.2859
  42
0
  0
VERTEX
  8
Titles
  10
9.12
  20
-0.2859
  42
0
  0
SEQEND
  0
POLYLINE
  8
Titles
  6
CONTINUOUS
  66
1
  70
0
  40
0.0131
  41
0.0131
  0
VERTEX
  8
Titles
  10
7.75
  20
-0.7859
  42
0
  0
VERTEX
  8
Titles
  10
9.12
  20
-0.7859
  42
0
  0
SEQEND
  0
POLYLINE
  8
Titles
  6
CONTINUOUS
  66
1
  70
0
  40
0.0131
  41
0.0131
  0
VERTEX
  8
Titles
  10
7.75
  20
-0.7859
  42
0
  0
VERTEX
  8
Titles
  10
9.12
  20
-0.7859
  42
0
  0
SEQEND
  0
POLYLINE
  8
Titles
  6
CONTINUOUS
  66
1
  70
0
  40
0.0131
  41
0.0131
  0
VERTEX
  8
Titles
  10
7.75
  20
-1.4059
  42
0
  0
VERTEX
  8
Titles
  10
9.12
  20
-1.4059
  42
0
  0
SEQEND
  0
POLYLINE
  8
Titles
  6
CONTINUOUS
  66
1
  70
0
  40
0.0131
  41
0.0131
  0
VERTEX
  8
Titles
  10
7.75
  20
-1.4059
  42
0
  0
VERTEX
  8
Titles
  10
9.12
  20
-1.4059
  42
0
  0
SEQEND
  0
POLYLINE
  8
Titles
  6
CONTINUOUS
  66
1
  70
0
  40
0.0131
  41
0.0131
  0
VERTEX
  8
Titles
  10
9.12
  20
-1.4059
  42
0
  0
VERTEX
  8
Titles
  10
9.12
  20
-1.7209
  42
0
  0
SEQEND
  0
POLYLINE
  8
Titles
  6
CONTINUOUS
  66
1
  70
0
  40
0.0131
  41
0.0131
  0
VERTEX
  8
Titles
  10
7.75
  20
-1.7859
  42
0
  0
VERTEX
  8
Titles
  10
9.12
  20
-1.7859
  42
0
  0
SEQEND
  0
POLYLINE
  8
Titles
  6
CONTINUOUS
  66
1
  70
0
  40
0.0131
  41
0.0131
  0
VERTEX
  8
Titles
  10
9.12
  20
-1.7209
  42
0
  0
VERTEX
  8
Titles
  10
9.12
  20
-1.7859
  42
0
  0
SEQEND
  0
POLYLINE
  8
Titles
  6
CONTINUOUS
  66
1
  70
0
  40
0.0131
  41
0.0131
  0
VERTEX
  8
Titles
  10
7.75
  20
-1.7859
  42
0
  0
VERTEX
  8
Titles
  10
9.12
  20
-1.7859
  42
0
  0
SEQEND
  0
POLYLINE
  8
Titles
  6
CONTINUOUS
  66
1
  70
0
  40
0.0131
  41
0.0131
  0
VERTEX
  8
Titles
  10
7.75
  20
-2.0359
  42
0
  0
VERTEX
  8
Titles
  10
9.12
  20
-2.0359
  42
0
  0
SEQEND
  0
POLYLINE
  8
Titles
  6
CONTINUOUS
  66
1
  70
0
  40
0.0131
  41
0.0131
  0
VERTEX
  8
Titles
  10
7.75
  20
-1.7859
  42
0
  0
VERTEX
  8
Titles
  10
7.75
  20
-2.0359
  42
0
  0
SEQEND
  0
POLYLINE
  8
Titles
  6
CONTINUOUS
  66
1
  70
0
  40
0.0131
  41
0.0131
  0
VERTEX
  8
Titles
  10
9.12
  20
-0.2859
  42
0
  0
VERTEX
  8
Titles
  10
9.5
  20
-0.2859
  42
0
  0
SEQEND
  0
POLYLINE
  8
Titles
  6
CONTINUOUS
  66
1
  70
0
  40
0.0131
  41
0.0131
  0
VERTEX
  8
Titles
  10
9.12
  20
-0.7859
  42
0
  0
VERTEX
  8
Titles
  10
9.5
  20
-0.7859
  42
0
  0
SEQEND
  0
POLYLINE
  8
Titles
  6
CONTINUOUS
  66
1
  70
0
  40
0.0131
  41
0.0131
  0
VERTEX
  8
Titles
  10
9.5
  20
-0.2859
  42
0
  0
VERTEX
  8
Titles
  10
9.5
  20
-0.7859
  42
0
  0
SEQEND
  0
POLYLINE
  8
Titles
  6
CONTINUOUS
  66
1
  70
0
  40
0.0131
  41
0.0131
  0
VERTEX
  8
Titles
  10
9.12
  20
-0.7859
  42
0
  0
VERTEX
  8
Titles
  10
9.5
  20
-0.7859
  42
0
  0
SEQEND
  0
POLYLINE
  8
Titles
  6
CONTINUOUS
  66
1
  70
0
  40
0.0131
  41
0.0131
  0
VERTEX
  8
Titles
  10
9.12
  20
-1.4059
  42
0
  0
VERTEX
  8
Titles
  10
9.5
  20
-1.4059
  42
0
  0
SEQEND
  0
POLYLINE
  8
Titles
  6
CONTINUOUS
  66
1
  70
0
  40
0.0131
  41
0.0131
  0
VERTEX
  8
Titles
  10
9.5
  20
-0.7859
  42
0
  0
VERTEX
  8
Titles
  10
9.5
  20
-1.4059
  42
0
  0
SEQEND
  0
POLYLINE
  8
Titles
  6
CONTINUOUS
  66
1
  70
0
  40
0.0131
  41
0.0131
  0
VERTEX
  8
Titles
  10
9.12
  20
-1.4059
  42
0
  0
VERTEX
  8
Titles
  10
9.5
  20
-1.4059
  42
0
  0
SEQEND
  0
POLYLINE
  8
Titles
  6
CONTINUOUS
  66
1
  70
0
  40
0.0131
  41
0.0131
  0
VERTEX
  8
Titles
  10
9.12
  20
-1.4059
  42
0
  0
VERTEX
  8
Titles
  10
9.12
  20
-1.7209
  42
0
  0
SEQEND
  0
POLYLINE
  8
Titles
  6
CONTINUOUS
  66
1
  70
0
  40
0.0131
  41
0.0131
  0
VERTEX
  8
Titles
  10
9.5
  20
-1.4059
  42
0
  0
VERTEX
  8
Titles
  10
9.5
  20
-1.7209
  42
0
  0
SEQEND
  0
POLYLINE
  8
Titles
  6
CONTINUOUS
  66
1
  70
0
  40
0.0131
  41
0.0131
  0
VERTEX
  8
Titles
  10
9.12
  20
-1.7859
  42
0
  0
VERTEX
  8
Titles
  10
9.5
  20
-1.7859
  42
0
  0
SEQEND
  0
POLYLINE
  8
Titles
  6
CONTINUOUS
  66
1
  70
0
  40
0.0131
  41
0.0131
  0
VERTEX
  8
Titles
  10
9.12
  20
-1.7209
  42
0
  0
VERTEX
  8
Titles
  10
9.12
  20
-1.7859
  42
0
  0
SEQEND
  0
POLYLINE
  8
Titles
  6
CONTINUOUS
  66
1
  70
0
  40
0.0131
  41
0.0131
  0
VERTEX
  8
Titles
  10
9.5
  20
-1.7209
  42
0
  0
VERTEX
  8
Titles
  10
9.5
  20
-1.7859
  42
0
  0
SEQEND
  0
POLYLINE
  8
Titles
  6
CONTINUOUS
  66
1
  70
0
  40
0.0131
  41
0.0131
  0
VERTEX
  8
Titles
  10
9.12
  20
-1.7859
  42
0
  0
VERTEX
  8
Titles
  10
9.5
  20
-1.7859
  42
0
  0
SEQEND
  0
POLYLINE
  8
Titles
  6
CONTINUOUS
  66
1
  70
0
  40
0.0131
  41
0.0131
  0
VERTEX
  8
Titles
  10
9.12
  20
-2.0359
  42
0
  0
VERTEX
  8
Titles
  10
9.5
  20
-2.0359
  42
0
  0
SEQEND
  0
POLYLINE
  8
Titles
  6
CONTINUOUS
  66
1
  70
0
  40
0.0131
  41
0.0131
  0
VERTEX
  8
Titles
  10
9.5
  20
-1.7859
  42
0
  0
VERTEX
  8
Titles
  10
9.5
  20
-2.0359
  42
0
  0
SEQEND
  0
ENDSEC
  0
EOF
