  0
SECTION
  2
HEADER
  9
$ACADVER
  1
AC1018
  9
$ACADMAINTVER
 70
     0
  9
$DWGCODEPAGE
  3
ANSI_1252
  9
$INSBASE
 10
0.0
 20
0.0
 30
0.0
  9
$EXTMIN
 10
-1.085387351131084
 20
14.57754090712376
 30
0.0
  9
$EXTMAX
 10
4.664000000000004
 20
20.47130909287624
 30
0.0
  9
$LIMMIN
 10
-0.52355081352485
 20
13.00910508686024
  9
$LIMMAX
 10
8.81644918647515
 20
21.54110508686025
  9
$ORTHOMODE
 70
     0
  9
$REGENMODE
 70
     1
  9
$FILLMODE
 70
     1
  9
$QTEXTMODE
 70
     0
  9
$MIRRTEXT
 70
     1
  9
$LTSCALE
 40
0.03937007874016
  9
$ATTMODE
 70
     1
  9
$TEXTSIZE
 40
0.25
  9
$TRACEWID
 40
0.05
  9
$TEXTSTYLE
  7
Standard
  9
$CLAYER
  8
0
  9
$CELTYPE
  6
ByLayer
  9
$CECOLOR
 62
     7
  9
$CELTSCALE
 40
1.0
  9
$DISPSILH
 70
     0
  9
$DIMSCALE
 40
1.0
  9
$DIMASZ
 40
0.18
  9
$DIMEXO
 40
0.0625
  9
$DIMDLI
 40
0.38
  9
$DIMRND
 40
0.0
  9
$DIMDLE
 40
0.0
  9
$DIMEXE
 40
0.18
  9
$DIMTP
 40
0.0
  9
$DIMTM
 40
0.0
  9
$DIMTXT
 40
0.18
  9
$DIMCEN
 40
0.09
  9
$DIMTSZ
 40
0.0
  9
$DIMTOL
 70
     0
  9
$DIMLIM
 70
     0
  9
$DIMTIH
 70
     1
  9
$DIMTOH
 70
     1
  9
$DIMSE1
 70
     0
  9
$DIMSE2
 70
     0
  9
$DIMTAD
 70
     0
  9
$DIMZIN
 70
     0
  9
$DIMBLK
  1

  9
$DIMASO
 70
     1
  9
$DIMSHO
 70
     1
  9
$DIMPOST
  1
 in
  9
$DIMAPOST
  1

  9
$DIMALT
 70
     0
  9
$DIMALTD
 70
     2
  9
$DIMALTF
 40
25.4
  9
$DIMLFAC
 40
1.0
  9
$DIMTOFL
 70
     0
  9
$DIMTVP
 40
0.0
  9
$DIMTIX
 70
     0
  9
$DIMSOXD
 70
     0
  9
$DIMSAH
 70
     0
  9
$DIMBLK1
  1

  9
$DIMBLK2
  1

  9
$DIMSTYLE
  2
Standard
  9
$DIMCLRD
 70
     0
  9
$DIMCLRE
 70
     0
  9
$DIMCLRT
 70
     0
  9
$DIMTFAC
 40
1.0
  9
$DIMGAP
 40
0.09
  9
$DIMJUST
 70
     0
  9
$DIMSD1
 70
     0
  9
$DIMSD2
 70
     0
  9
$DIMTOLJ
 70
     1
  9
$DIMTZIN
 70
     0
  9
$DIMALTZ
 70
     0
  9
$DIMALTTZ
 70
     0
  9
$DIMUPT
 70
     0
  9
$DIMDEC
 70
     4
  9
$DIMTDEC
 70
     4
  9
$DIMALTU
 70
     2
  9
$DIMALTTD
 70
     2
  9
$DIMTXSTY
  7
Standard
  9
$DIMAUNIT
 70
     0
  9
$DIMADEC
 70
     0
  9
$DIMALTRND
 40
0.0
  9
$DIMAZIN
 70
     0
  9
$DIMDSEP
 70
    46
  9
$DIMATFIT
 70
     3
  9
$DIMFRAC
 70
     0
  9
$DIMLDRBLK
  1

  9
$DIMLUNIT
 70
     2
  9
$DIMLWD
 70
    -2
  9
$DIMLWE
 70
    -2
  9
$DIMTMOVE
 70
     0
  9
$LUNITS
 70
     2
  9
$LUPREC
 70
     4
  9
$SKETCHINC
 40
0.1
  9
$FILLETRAD
 40
0.05
  9
$AUNITS
 70
     0
  9
$AUPREC
 70
     0
  9
$MENU
  1
.
  9
$ELEVATION
 40
0.0
  9
$PELEVATION
 40
0.0
  9
$THICKNESS
 40
0.0
  9
$LIMCHECK
 70
     0
  9
$CHAMFERA
 40
0.5
  9
$CHAMFERB
 40
0.5
  9
$CHAMFERC
 40
1.0
  9
$CHAMFERD
 40
0.0
  9
$SKPOLY
 70
     0
  9
$TDCREATE
 40
2455622.480038519
  9
$TDUCREATE
 40
2455622.688371852
  9
$TDUPDATE
 40
2455622.48003853
  9
$TDUUPDATE
 40
2455622.688371863
  9
$TDINDWG
 40
0.0
  9
$TDUSRTIMER
 40
0.0
  9
$USRTIMER
 70
     1
  9
$ANGBASE
 50
0.0
  9
$ANGDIR
 70
     0
  9
$PDMODE
 70
     0
  9
$PDSIZE
 40
0.0
  9
$PLINEWID
 40
0.0
  9
$SPLFRAME
 70
     0
  9
$SPLINETYPE
 70
     6
  9
$SPLINESEGS
 70
     8
  9
$HANDSEED
  5
2EF
  9
$SURFTAB1
 70
     6
  9
$SURFTAB2
 70
     6
  9
$SURFTYPE
 70
     6
  9
$SURFU
 70
     6
  9
$SURFV
 70
     6
  9
$UCSBASE
  2

  9
$UCSNAME
  2

  9
$UCSORG
 10
0.0
 20
0.0
 30
0.0
  9
$UCSXDIR
 10
1.0
 20
0.0
 30
0.0
  9
$UCSYDIR
 10
0.0
 20
1.0
 30
0.0
  9
$UCSORTHOREF
  2

  9
$UCSORTHOVIEW
 70
     0
  9
$UCSORGTOP
 10
0.0
 20
0.0
 30
0.0
  9
$UCSORGBOTTOM
 10
0.0
 20
0.0
 30
0.0
  9
$UCSORGLEFT
 10
0.0
 20
0.0
 30
0.0
  9
$UCSORGRIGHT
 10
0.0
 20
0.0
 30
0.0
  9
$UCSORGFRONT
 10
0.0
 20
0.0
 30
0.0
  9
$UCSORGBACK
 10
0.0
 20
0.0
 30
0.0
  9
$PUCSBASE
  2

  9
$PUCSNAME
  2

  9
$PUCSORG
 10
0.0
 20
0.0
 30
0.0
  9
$PUCSXDIR
 10
1.0
 20
0.0
 30
0.0
  9
$PUCSYDIR
 10
0.0
 20
1.0
 30
0.0
  9
$PUCSORTHOREF
  2

  9
$PUCSORTHOVIEW
 70
     0
  9
$PUCSORGTOP
 10
0.0
 20
0.0
 30
0.0
  9
$PUCSORGBOTTOM
 10
0.0
 20
0.0
 30
0.0
  9
$PUCSORGLEFT
 10
0.0
 20
0.0
 30
0.0
  9
$PUCSORGRIGHT
 10
0.0
 20
0.0
 30
0.0
  9
$PUCSORGFRONT
 10
0.0
 20
0.0
 30
0.0
  9
$PUCSORGBACK
 10
0.0
 20
0.0
 30
0.0
  9
$USERI1
 70
     0
  9
$USERI2
 70
     0
  9
$USERI3
 70
     0
  9
$USERI4
 70
     0
  9
$USERI5
 70
     0
  9
$USERR1
 40
0.0
  9
$USERR2
 40
0.0
  9
$USERR3
 40
0.0
  9
$USERR4
 40
0.0
  9
$USERR5
 40
0.0
  9
$WORLDVIEW
 70
     1
  9
$SHADEDGE
 70
     3
  9
$SHADEDIF
 70
    70
  9
$TILEMODE
 70
     1
  9
$MAXACTVP
 70
    64
  9
$PINSBASE
 10
0.0
 20
0.0
 30
0.0
  9
$PLIMCHECK
 70
     0
  9
$PEXTMIN
 10
0.0
 20
0.0
 30
0.0
  9
$PEXTMAX
 10
11.69291338582677
 20
8.26771653543307
 30
0.0
  9
$PLIMMIN
 10
0.0
 20
0.0
  9
$PLIMMAX
 10
11.69291338582677
 20
8.26771653543307
  9
$UNITMODE
 70
     0
  9
$VISRETAIN
 70
     1
  9
$PLINEGEN
 70
     0
  9
$PSLTSCALE
 70
     1
  9
$TREEDEPTH
 70
  3020
  9
$CMLSTYLE
  2
Standard
  9
$CMLJUST
 70
     0
  9
$CMLSCALE
 40
1.0
  9
$PROXYGRAPHICS
 70
     1
  9
$MEASUREMENT
 70
     0
  9
$CELWEIGHT
370
    -1
  9
$ENDCAPS
280
     0
  9
$JOINSTYLE
280
     0
  9
$LWDISPLAY
290
     0
  9
$INSUNITS
 70
     0
  9
$HYPERLINKBASE
  1

  9
$STYLESHEET
  1

  9
$XEDIT
290
     1
  9
$CEPSNTYPE
380
     0
  9
$PSTYLEMODE
290
     1
  9
$FINGERPRINTGUID
  2
{C258AB3E-0DEE-4A8D-8B70-5BC336B7BE20}
  9
$VERSIONGUID
  2
{FAEB1C32-E019-11D5-929B-00C0DF256EC4}
  9
$EXTNAMES
290
     1
  9
$PSVPSCALE
 40
0.0
  9
$OLESTARTUP
290
     0
  9
$SORTENTS
280
   127
  9
$INDEXCTL
280
     0
  9
$HIDETEXT
280
     1
  9
$XCLIPFRAME
290
     0
  9
$HALOGAP
280
     0
  9
$OBSCOLOR
 70
   257
  9
$OBSLTYPE
280
     0
  9
$INTERSECTIONDISPLAY
280
     0
  9
$INTERSECTIONCOLOR
 70
   257
  9
$DIMASSOC
280
     2
  9
$PROJECTNAME
  1

  0
ENDSEC
  0
SECTION
  2
CLASSES
  0
CLASS
  1
ACDBDICTIONARYWDFLT
  2
AcDbDictionaryWithDefault
  3
ObjectDBX Classes
 90
        0
 91
        4
280
     0
281
     0
  0
CLASS
  1
VISUALSTYLE
  2
AcDbVisualStyle
  3
ObjectDBX Classes
 90
     4095
 91
        4
280
     0
281
     0
  0
CLASS
  1
MATERIAL
  2
AcDbMaterial
  3
ObjectDBX Classes
 90
     1153
 91
        4
280
     0
281
     0
  0
CLASS
  1
AEC_VARS_DWG_SETUP
  2
AecDbVarsDwgSetup
  3
AecBase60
 90
      129
 91
        4
280
     0
281
     0
  0
CLASS
  1
AEC_DISP_REP_2D_SECTION
  2
AecDbDispRep2dSection
  3
AecBase60
 90
      129
 91
        4
280
     0
281
     0
  0
CLASS
  1
AEC_DISP_PROPS_2D_SECTION
  2
AecDbDispProps2dSection
  3
AecBase60
 90
      129
 91
        4
280
     0
281
     0
  0
CLASS
  1
AEC_DISP_REP_CLIP_VOLUME_MODEL
  2
AecDbDispRepClipVolModel
  3
AecBase60
 90
      129
 91
        6
280
     0
281
     0
  0
CLASS
  1
AEC_DISP_PROPS_CLIP_VOLUME
  2
AecDbDispPropsClipVol
  3
AecBase60
 90
      129
 91
        4
280
     0
281
     0
  0
CLASS
  1
AEC_DISP_REP_CLIP_VOLUME_PLAN
  2
AecDbDispRepClipVolPlan
  3
AecBase60
 90
      129
 91
        4
280
     0
281
     0
  0
CLASS
  1
AEC_DISP_REP_CLIP_VOLUME_RESULT
  2
AecDbDispRepClipVolResult
  3
AecBase60
 90
      129
 91
        6
280
     0
281
     0
  0
CLASS
  1
AEC_DISP_REP_CLIP_VOLUME_RESULT_SUBDIV
  2
AecDbDispRepClipVolResSubDiv
  3
AecBase60
 90
      129
 91
        5
280
     0
281
     0
  0
CLASS
  1
AEC_DISP_PROPS_CLIP_VOLUME_RESULT
  2
AecDbDispPropsClipVolResSubDiv
  3
AecBase60
 90
      129
 91
        4
280
     0
281
     0
  0
CLASS
  1
AEC_DISP_REP_DISPLAYTHEME
  2
AecDbDispRepDisplayTheme
  3
AecBase60
 90
      129
 91
        4
280
     0
281
     0
  0
CLASS
  1
AEC_DISP_REP_ENT_REF
  2
AecDbDispRepEntRef
  3
AecBase60
 90
      129
 91
        4
280
     0
281
     0
  0
CLASS
  1
AEC_DISP_PROPS_ENT_REF
  2
AecDbDispPropsEntRef
  3
AecBase60
 90
      129
 91
        4
280
     0
281
     0
  0
CLASS
  1
AEC_DISP_REP_LAYOUT_CURVE
  2
AecDbDispRepLayoutCurve
  3
AecBase60
 90
      129
 91
        4
280
     0
281
     0
  0
CLASS
  1
AEC_DISP_PROPS_LAYOUT_CURVE
  2
AecDbDispPropsLayoutCurve
  3
AecBase60
 90
      129
 91
        4
280
     0
281
     0
  0
CLASS
  1
AEC_DISP_REP_LAYOUT_GRID2D
  2
AecDbDispRepLayoutGrid2d
  3
AecBase60
 90
      129
 91
        6
280
     0
281
     0
  0
CLASS
  1
AEC_DISP_PROPS_LAYOUT_GRID2D
  2
AecDbDispPropsLayoutGrid2d
  3
AecBase60
 90
      129
 91
        5
280
     0
281
     0
  0
CLASS
  1
AEC_DISP_REP_LAYOUT_GRID3D
  2
AecDbDispRepLayoutGrid3d
  3
AecBase60
 90
      129
 91
        4
280
     0
281
     0
  0
CLASS
  1
AEC_DISP_PROPS_LAYOUT_GRID3D
  2
AecDbDispPropsLayoutGrid3d
  3
AecBase60
 90
      129
 91
        4
280
     0
281
     0
  0
CLASS
  1
AEC_DISP_REP_MASKBLOCK_REF
  2
AecDbDispRepMaskBlockRef
  3
AecBase60
 90
      129
 91
        5
280
     0
281
     0
  0
CLASS
  1
AEC_DISP_PROPS_MASKBLOCK
  2
AecDbDispPropsMaskBlock
  3
AecBase60
 90
      129
 91
        4
280
     0
281
     0
  0
CLASS
  1
AEC_DISP_REP_MASKBLOCK_REF_RCP
  2
AecDbDispRepMaskBlockRefRcp
  3
AecArchBase60
 90
      129
 91
        4
280
     0
281
     0
  0
CLASS
  1
AEC_DISP_REP_MASS_ELEM_MODEL
  2
AecDbDispRepMassElemModel
  3
AecBase60
 90
      129
 91
        4
280
     0
281
     0
  0
CLASS
  1
AEC_DISP_PROPS_MASS_ELEM_MODEL
  2
AecDbDispPropsMassElem
  3
AecBase60
 90
      129
 91
        5
280
     0
281
     0
  0
CLASS
  1
AEC_DISP_REP_MASS_ELEM_SCHEM
  2
AecDbDispRepMassElemSchem
  3
AecBase60
 90
      129
 91
        5
280
     0
281
     0
  0
CLASS
  1
AEC_DISPREPAECDBDISPREPMASSELEMPLAN50
  2
AecDbDispRepMassElemPlan50
  3
AecArchDACHBase60
 90
      129
 91
        4
280
     0
281
     0
  0
CLASS
  1
AEC_DISPROPSMASSELEMPLANCOMMON
  2
AecDbDispPropsMassElemPlanCommon
  3
AecArchDACHBase60
 90
      129
 91
        4
280
     0
281
     0
  0
CLASS
  1
AEC_DISPREPAECDBDISPREPMASSELEMPLAN100
  2
AecDbDispRepMassElemPlan100
  3
AecArchDACHBase60
 90
      129
 91
        4
280
     0
281
     0
  0
CLASS
  1
AEC_DISP_REP_MASS_ELEM_RCP
  2
AecDbDispRepMassElemRcp
  3
AecArchBase60
 90
      129
 91
        4
280
     0
281
     0
  0
CLASS
  1
AEC_DISP_REP_MASS_GROUP_MODEL
  2
AecDbDispRepMassGroupModel
  3
AecBase60
 90
      129
 91
        4
280
     0
281
     0
  0
CLASS
  1
AEC_DISP_PROPS_MASS_GROUP
  2
AecDbDispPropsMassGroup
  3
AecBase60
 90
      129
 91
        5
280
     0
281
     0
  0
CLASS
  1
AEC_DISP_REP_MASS_GROUP_PLAN
  2
AecDbDispRepMassGroupPlan
  3
AecBase60
 90
      129
 91
        8
280
     0
281
     0
  0
CLASS
  1
AEC_DISPREPAECDBDISPREPMASSGROUPPLAN50
  2
AecDbDispRepMassGroupPlan50
  3
AecArchDACHBase60
 90
      129
 91
        4
280
     0
281
     0
  0
CLASS
  1
AEC_DISPROPSMASSGROUPPLANCOMMON
  2
AecDbDispPropsMassGroupPlanCommon
  3
AecArchDACHBase60
 90
      129
 91
        4
280
     0
281
     0
  0
CLASS
  1
AEC_DISPREPAECDBDISPREPMASSGROUPPLAN100
  2
AecDbDispRepMassGroupPlan100
  3
AecArchDACHBase60
 90
      129
 91
        4
280
     0
281
     0
  0
CLASS
  1
AEC_DISP_REP_MASS_GROUP_RCP
  2
AecDbDispRepMassGroupRcp
  3
AecArchBase60
 90
      129
 91
        4
280
     0
281
     0
  0
CLASS
  1
AEC_DISP_REP_MVBLOCK_REF
  2
AecDbDispRepMvBlockRef
  3
AecBase60
 90
      129
 91
        8
280
     0
281
     0
  0
CLASS
  1
AEC_DISP_REP_MVBLOCK_REF_MODEL
  2
AecDbDispRepMvBlockRefModel
  3
AecBase60
 90
      129
 91
        4
280
     0
281
     0
  0
CLASS
  1
AEC_AECDBDISPREPMVBLOCKREFPLAN100
  2
AecDbDispRepMvBlockRefPlan100
  3
AecBase60
 90
      129
 91
        4
280
     0
281
     0
  0
CLASS
  1
AEC_AECDBDISPREPMVBLOCKREFPLAN50
  2
AecDbDispRepMvBlockRefPlan50
  3
AecBase60
 90
      129
 91
        4
280
     0
281
     0
  0
CLASS
  1
AEC_DISP_REP_POLYGON_MODEL
  2
AecDbDispRepPolygonModel
  3
AecBase60
 90
      129
 91
        4
280
     0
281
     0
  0
CLASS
  1
AEC_DISP_PROPS_POLYGON_MODEL
  2
AecDbDispPropsPolygonModel
  3
AecBase60
 90
      129
 91
        4
280
     0
281
     0
  0
CLASS
  1
AEC_DISP_REP_POLYGON_TRUECOLOUR
  2
AecDbDispRepPolygonTrueColour
  3
AecBase60
 90
      129
 91
        4
280
     0
281
     0
  0
CLASS
  1
AEC_DISP_PROPS_POLYGON_TRUECOLOUR
  2
AecDbDispPropsPolygonTrueColour
  3
AecBase60
 90
      129
 91
        4
280
     0
281
     0
  0
CLASS
  1
AEC_DISP_REP_SLICE
  2
AecDbDispRepSlice
  3
AecBase60
 90
      129
 91
        4
280
     0
281
     0
  0
CLASS
  1
AEC_DISP_PROPS_SLICE
  2
AecDbDispPropsSlice
  3
AecBase60
 90
      129
 91
        4
280
     0
281
     0
  0
CLASS
  1
AEC_DISP_REP_ANCHOR
  2
AecDbDispRepAnchor
  3
AecBase60
 90
      129
 91
        4
280
     0
281
     0
  0
CLASS
  1
AEC_DISP_REP_ANCHOR_ENT_TO_NODE
  2
AecDbDispRepAnchorEntToNode
  3
AecBase60
 90
      129
 91
        5
280
     0
281
     0
  0
CLASS
  1
AEC_DISP_PROPS_ENT
  2
AecDbDispPropsEnt
  3
AecBase60
 90
      129
 91
        4
280
     0
281
     0
  0
CLASS
  1
AEC_DISP_REP_MATERIAL
  2
AecDbDispRepMaterial
  3
AecBase60
 90
      129
 91
        4
280
     0
281
     0
  0
CLASS
  1
AEC_DISP_PROPS_MATERIAL
  2
AecDbDispPropsMaterial
  3
AecBase60
 90
      129
 91
        4
280
     0
281
     0
  0
CLASS
  1
AEC_DISP_REP_EDITINPLACEPROFILE
  2
AecDbDispRepEditInPlaceProfile
  3
AecBase60
 90
      129
 91
        4
280
     0
281
     0
  0
CLASS
  1
AEC_DISP_PROPS_EDITINPLACEPROFILE_MODEL
  2
AecDbDispPropsEditInPlaceProfile
  3
AecBase60
 90
      129
 91
        4
280
     0
281
     0
  0
CLASS
  1
AEC_VARS_ARCHBASE
  2
AecDbVarsArchBase
  3
AecArchBase60
 90
      129
 91
        4
280
     0
281
     0
  0
CLASS
  1
AEC_DISP_REP_BDG_ELEVLINE_PLAN
  2
AecDbDispRepBdgElevLinePlan
  3
AecArchBase60
 90
      129
 91
        7
280
     0
281
     0
  0
CLASS
  1
AEC_DISP_REP_BDG_ELEVLINE_MODEL
  2
AecDbDispRepBdgElevLineModel
  3
AecArchBase60
 90
      129
 91
        4
280
     0
281
     0
  0
CLASS
  1
AEC_DISP_REP_BDG_ELEVLINE_RCP
  2
AecDbDispRepBdgElevLineRcp
  3
AecArchBase60
 90
      129
 91
        4
280
     0
281
     0
  0
CLASS
  1
AEC_AECDBDISPREPBDGELEVLINEPLAN100
  2
AecDbDispRepBdgElevLinePlan100
  3
AecBase60
 90
      129
 91
        4
280
     0
281
     0
  0
CLASS
  1
AEC_AECDBDISPREPBDGELEVLINEPLAN50
  2
AecDbDispRepBdgElevLinePlan50
  3
AecBase60
 90
      129
 91
        4
280
     0
281
     0
  0
CLASS
  1
AEC_DISP_REP_BDG_SECTIONLINE_MODEL
  2
AecDbDispRepBdgSectionLineModel
  3
AecArchBase60
 90
      129
 91
        4
280
     0
281
     0
  0
CLASS
  1
AEC_DISP_REP_BDG_SECTIONLINE_PLAN
  2
AecDbDispRepBdgSectionLinePlan
  3
AecArchBase60
 90
      129
 91
        7
280
     0
281
     0
  0
CLASS
  1
AEC_DISP_REP_BDG_SECTIONLINE_RCP
  2
AecDbDispRepBdgSectionLineRcp
  3
AecArchBase60
 90
      129
 91
        4
280
     0
281
     0
  0
CLASS
  1
AEC_AECDBDISPREPBDGSECTIONLINEPLAN100
  2
AecDbDispRepBdgSectionLinePlan100
  3
AecBase60
 90
      129
 91
        4
280
     0
281
     0
  0
CLASS
  1
AEC_AECDBDISPREPBDGSECTIONLINEPLAN50
  2
AecDbDispRepBdgSectionLinePlan50
  3
AecBase60
 90
      129
 91
        4
280
     0
281
     0
  0
CLASS
  1
AEC_DISP_REP_BDG_SECTION_SUBDIV
  2
AecDbDispRepBdgSectionSubDiv
  3
AecArchBase60
 90
      129
 91
        4
280
     0
281
     0
  0
CLASS
  1
AEC_DISP_REP_BDG_SECTION_MODEL
  2
AecDbDispRepBdgSectionModel
  3
AecArchBase60
 90
      129
 91
        4
280
     0
281
     0
  0
CLASS
  1
AEC_DISP_REP_CEILING_GRID
  2
AecDbDispRepCeilingGrid
  3
AecArchBase60
 90
      893
 91
        8
280
     0
281
     0
  0
CLASS
  1
AEC_DISP_REP_CEILING_GRID_MODEL
  2
AecDbDispRepCeilingGridModel
  3
AecArchBase60
 90
      129
 91
        4
280
     0
281
     0
  0
CLASS
  1
AEC_DISP_REP_CEILING_GRID_RCP
  2
AecDbDispRepCeilingGridRcp
  3
AecArchBase60
 90
      129
 91
        4
280
     0
281
     0
  0
CLASS
  1
AEC_AECDBDISPREPCEILINGGRIDPLAN100
  2
AecDbDispRepCeilingGridPlan100
  3
AecBase60
 90
      129
 91
        4
280
     0
281
     0
  0
CLASS
  1
AEC_AECDBDISPREPCEILINGGRIDPLAN50
  2
AecDbDispRepCeilingGridPlan50
  3
AecBase60
 90
      129
 91
        4
280
     0
281
     0
  0
CLASS
  1
AEC_DISP_REP_CURTAIN_WALL_LAYOUT_MODEL
  2
AecDbDispRepCurtainWallLayoutModel
  3
AecArchBase60
 90
      129
 91
        4
280
     0
281
     0
  0
CLASS
  1
AEC_DISP_PROPS_GRID_ASSEMBLY_MODEL
  2
AecDbDispPropsGridAssemblyModel
  3
AecArchBase60
 90
      129
 91
        4
280
     0
281
     0
  0
CLASS
  1
AEC_DISP_REP_CURTAIN_WALL_LAYOUT_PLAN
  2
AecDbDispRepCurtainWallLayoutPlan
  3
AecArchBase60
 90
      129
 91
        6
280
     0
281
     0
  0
CLASS
  1
AEC_DISP_PROPS_GRID_ASSEMBLY_PLAN
  2
AecDbDispPropsGridAssemblyPlan
  3
AecArchBase60
 90
      129
 91
        4
280
     0
281
     0
  0
CLASS
  1
AEC_AECDBDISPREPCURTAINWALLLAYOUTPLAN100
  2
AecDbDispRepCurtainWallLayoutPlan100
  3
AecBase60
 90
      129
 91
        4
280
     0
281
     0
  0
CLASS
  1
AEC_AECDBDISPREPCURTAINWALLLAYOUTPLAN50
  2
AecDbDispRepCurtainWallLayoutPlan50
  3
AecBase60
 90
      129
 91
        4
280
     0
281
     0
  0
CLASS
  1
AEC_DISP_REP_CURTAIN_WALL_UNIT_MODEL
  2
AecDbDispRepCurtainWallUnitModel
  3
AecArchBase60
 90
      129
 91
        4
280
     0
281
     0
  0
CLASS
  1
AEC_DISP_REP_CURTAIN_WALL_UNIT_PLAN
  2
AecDbDispRepCurtainWallUnitPlan
  3
AecArchBase60
 90
      129
 91
        6
280
     0
281
     0
  0
CLASS
  1
AEC_AECDBDISPREPCURTAINWALLUNITPLAN100
  2
AecDbDispRepCurtainWallUnitPlan100
  3
AecBase60
 90
      129
 91
        4
280
     0
281
     0
  0
CLASS
  1
AEC_AECDBDISPREPCURTAINWALLUNITPLAN50
  2
AecDbDispRepCurtainWallUnitPlan50
  3
AecBase60
 90
      129
 91
        4
280
     0
281
     0
  0
CLASS
  1
AEC_DISP_REP_DOOR_MODEL
  2
AecDbDispRepDoorModel
  3
AecArchBase60
 90
      129
 91
        5
280
     0
281
     0
  0
CLASS
  1
AEC_DISP_PROPS_DOOR
  2
AecDbDispPropsDoor
  3
AecArchBase60
 90
      129
 91
        5
280
     0
281
     0
  0
CLASS
  1
AEC_DISP_REP_DOOR_ELEV
  2
AecDbDispRepDoorElev
  3
AecArchBase60
 90
      129
 91
        4
280
     0
281
     0
  0
CLASS
  1
AEC_DISP_REP_DOOR_PLAN
  2
AecDbDispRepDoorPlan
  3
AecArchBase60
 90
      129
 91
        8
280
     0
281
     0
  0
CLASS
  1
AEC_DISP_REP_DOOR_NOMINAL
  2
AecDbDispRepDoorNominal
  3
AecArchBase60
 90
      129
 91
        4
280
     0
281
     0
  0
CLASS
  1
AEC_DISP_PROPS_DOOR_NOMINAL
  2
AecDbDispPropsDoorNominal
  3
AecArchBase60
 90
      129
 91
        4
280
     0
281
     0
  0
CLASS
  1
AEC_DISP_REP_DOOR_THRESHOLD_PLAN
  2
AecDbDispRepDoorThresholdPlan
  3
AecArchBase60
 90
      129
 91
        4
280
     0
281
     0
  0
CLASS
  1
AEC_DISP_PROPS_DOOR_THRESHOLD_PLAN
  2
AecDbDispPropsDoorThresholdPlan
  3
AecArchBase60
 90
      129
 91
        4
280
     0
281
     0
  0
CLASS
  1
AEC_DISP_REP_DOOR_PLAN_50
  2
AecDbDispRepDoorPlan50
  3
AecArchDACHBase60
 90
      129
 91
        4
280
     0
281
     0
  0
CLASS
  1
AEC_DISP_PROPS_DOOR_PLAN_50
  2
AecDbDispPropsDoorPlan50
  3
AecArchDACHBase60
 90
      129
 91
        4
280
     0
281
     0
  0
CLASS
  1
AEC_DISP_REP_DOOR_PLAN_HEKTO
  2
AecDbDispRepDoorPlanHekto
  3
AecArchDACHBase60
 90
      129
 91
        4
280
     0
281
     0
  0
CLASS
  1
AEC_DISP_PROPS_DOOR_PLAN_100
  2
AecDbDispPropsDoorPlan100
  3
AecArchDACHBase60
 90
      129
 91
        4
280
     0
281
     0
  0
CLASS
  1
AEC_DISP_REP_DOOR_RCP
  2
AecDbDispRepDoorRcp
  3
AecArchBase60
 90
      129
 91
        4
280
     0
281
     0
  0
CLASS
  1
AEC_DISP_REP_DOOR_THRESHOLD_SYMBOL_PLAN
  2
AecDbDispRepDoorThresholdSymbolPlan
  3
AecArchDACHBase60
 90
      129
 91
        4
280
     0
281
     0
  0
CLASS
  1
AEC_DISP_PROPS_DOOR_THRESHOLD_SYMBOL_PLAN
  2
AecDbDispPropsDoorThresholdSymbolPlan
  3
AecArchDACHBase60
 90
      129
 91
        4
280
     0
281
     0
  0
CLASS
  1
AEC_DISP_REP_OPENING
  2
AecDbDispRepOpening
  3
AecArchBase60
 90
      129
 91
        6
280
     0
281
     0
  0
CLASS
  1
AEC_DISP_PROPS_OPENING
  2
AecDbDispPropsOpening
  3
AecArchBase60
 90
      129
 91
        5
280
     0
281
     0
  0
CLASS
  1
AEC_DISP_REP_OPENING_MODEL
  2
AecDbDispRepOpeningModel
  3
AecArchBase60
 90
      129
 91
        4
280
     0
281
     0
  0
CLASS
  1
AEC_DISPREPAECDBDISPREPOPENINGPLAN100
  2
AecDbDispRepOpeningPlan100
  3
AecArchDACHBase60
 90
      129
 91
        4
280
     0
281
     0
  0
CLASS
  1
AEC_DISPROPSOPENINGPLANCOMMONHATCHED
  2
AecDbDispPropsOpeningPlanCommonHatched
  3
AecArchDACHBase60
 90
      129
 91
        4
280
     0
281
     0
  0
CLASS
  1
AEC_DISPREPAECDBDISPREPOPENINGPLAN50
  2
AecDbDispRepOpeningPlan50
  3
AecArchDACHBase60
 90
      129
 91
        4
280
     0
281
     0
  0
CLASS
  1
AEC_DISPREPAECDBDISPREPOPENINGPLANREFLECTED
  2
AecDbDispRepOpeningPlanReflected
  3
AecArchDACHBase60
 90
      129
 91
        4
280
     0
281
     0
  0
CLASS
  1
AEC_DISPROPSOPENINGPLANCOMMON
  2
AecDbDispPropsOpeningPlanCommon
  3
AecArchDACHBase60
 90
      129
 91
        5
280
     0
281
     0
  0
CLASS
  1
AEC_DISPREPAECDBDISPREPOPENINGSILLPLAN
  2
AecDbDispRepOpeningSillPlan
  3
AecArchDACHBase60
 90
      129
 91
        4
280
     0
281
     0
  0
CLASS
  1
AEC_DISPROPSOPENINGSILLPLAN
  2
AecDbDispPropsOpeningSillPlan
  3
AecArchDACHBase60
 90
      129
 91
        4
280
     0
281
     0
  0
CLASS
  1
AEC_DISP_REP_RAILING_MODEL
  2
AecDbDispRepRailingModel
  3
AecArchBase60
 90
      129
 91
        4
280
     0
281
     0
  0
CLASS
  1
AEC_DISP_PROPS_RAILING_MODEL
  2
AecDbDispPropsRailingModel
  3
AecArchBase60
 90
      129
 91
        4
280
     0
281
     0
  0
CLASS
  1
AEC_DISP_REP_RAILING_PLAN
  2
AecDbDispRepRailingPlan
  3
AecArchBase60
 90
      129
 91
        5
280
     0
281
     0
  0
CLASS
  1
AEC_DISP_PROPS_RAILING_PLAN
  2
AecDbDispPropsRailingPlan
  3
AecArchBase60
 90
      129
 91
        5
280
     0
281
     0
  0
CLASS
  1
AEC_DISP_REP_RAILING_PLAN_100
  2
AecDbDispRepRailingPlan100
  3
AecArchDACHBase60
 90
      129
 91
        4
280
     0
281
     0
  0
CLASS
  1
AEC_DISP_ROPS_RAILING_PLAN_100
  2
AecDbDispPropsRailingPlan100
  3
AecArchDACHBase60
 90
      129
 91
        4
280
     0
281
     0
  0
CLASS
  1
AEC_DISP_REP_RAILING_PLAN_50
  2
AecDbDispRepRailingPlan50
  3
AecArchDACHBase60
 90
      129
 91
        4
280
     0
281
     0
  0
CLASS
  1
AEC_DISP_ROPS_RAILING_PLAN_50
  2
AecDbDispPropsRailingPlan50
  3
AecArchDACHBase60
 90
      129
 91
        4
280
     0
281
     0
  0
CLASS
  1
AEC_DISP_REP_ROOF_MODEL
  2
AecDbDispRepRoofModel
  3
AecArchBase60
 90
      129
 91
        4
280
     0
281
     0
  0
CLASS
  1
AEC_DISP_PROPS_ROOF
  2
AecDbDispPropsRoof
  3
AecArchBase60
 90
      129
 91
        4
280
     0
281
     0
  0
CLASS
  1
AEC_DISP_REP_ROOF_PLAN
  2
AecDbDispRepRoofPlan
  3
AecArchBase60
 90
      129
 91
        8
280
     0
281
     0
  0
CLASS
  1
AEC_DISP_REP_ROOF_RCP
  2
AecDbDispRepRoofRcp
  3
AecArchBase60
 90
      129
 91
        4
280
     0
281
     0
  0
CLASS
  1
AEC_AECDBDISPREPROOFPLAN100
  2
AecDbDispRepRoofPlan100
  3
AecBase60
 90
      129
 91
        4
280
     0
281
     0
  0
CLASS
  1
AEC_AECDBDISPREPROOFPLAN50
  2
AecDbDispRepRoofPlan50
  3
AecBase60
 90
      129
 91
        4
280
     0
281
     0
  0
CLASS
  1
AEC_DISP_REP_ROOFSLAB_MODEL
  2
AecDbDispRepRoofSlabModel
  3
AecArchBase60
 90
      129
 91
        4
280
     0
281
     0
  0
CLASS
  1
AEC_DISP_PROPS_ROOFSLAB
  2
AecDbDispPropsRoofSlab
  3
AecArchBase60
 90
      129
 91
        4
280
     0
281
     0
  0
CLASS
  1
AEC_DISP_REP_ROOFSLAB_PLAN
  2
AecDbDispRepRoofSlabPlan
  3
AecArchBase60
 90
      129
 91
        6
280
     0
281
     0
  0
CLASS
  1
AEC_DISP_PROPS_ROOFSLAB_PLAN
  2
AecDbDispPropsRoofSlabPlan
  3
AecArchBase60
 90
      129
 91
        4
280
     0
281
     0
  0
CLASS
  1
AEC_AECDBDISPREPROOFSLABPLAN100
  2
AecDbDispRepRoofSlabPlan100
  3
AecBase60
 90
      129
 91
        4
280
     0
281
     0
  0
CLASS
  1
AEC_AECDBDISPREPROOFSLABPLAN50
  2
AecDbDispRepRoofSlabPlan50
  3
AecBase60
 90
      129
 91
        4
280
     0
281
     0
  0
CLASS
  1
AEC_DISP_REP_SLAB_MODEL
  2
AecDbDispRepSlabModel
  3
AecArchBase60
 90
      129
 91
        5
280
     0
281
     0
  0
CLASS
  1
AEC_DISP_PROPS_SLAB
  2
AecDbDispPropsSlab
  3
AecArchBase60
 90
      129
 91
        6
280
     0
281
     0
  0
CLASS
  1
AEC_DISP_REP_SLAB_PLAN
  2
AecDbDispRepSlabPlan
  3
AecArchBase60
 90
      129
 91
        7
280
     0
281
     0
  0
CLASS
  1
AEC_DISP_PROPS_SLAB_PLAN
  2
AecDbDispPropsSlabPlan
  3
AecArchBase60
 90
      129
 91
        5
280
     0
281
     0
  0
CLASS
  1
AEC_AECDBDISPREPSLABPLAN100
  2
AecDbDispRepSlabPlan100
  3
AecBase60
 90
      129
 91
        4
280
     0
281
     0
  0
CLASS
  1
AEC_AECDBDISPREPSLABPLAN50
  2
AecDbDispRepSlabPlan50
  3
AecBase60
 90
      129
 91
        4
280
     0
281
     0
  0
CLASS
  1
AEC_DISP_REP_SPACE_MODEL
  2
AecDbDispRepSpaceModel
  3
AecArchBase60
 90
      129
 91
        4
280
     0
281
     0
  0
CLASS
  1
AEC_DISP_PROPS_SPACE_MODEL
  2
AecDbDispPropsSpaceModel
  3
AecArchBase60
 90
      129
 91
        4
280
     0
281
     0
  0
CLASS
  1
AEC_DISP_REP_SPACE_PLAN
  2
AecDbDispRepSpacePlan
  3
AecArchBase60
 90
      129
 91
        7
280
     0
281
     0
  0
CLASS
  1
AEC_DISP_PROPS_SPACE_PLAN
  2
AecDbDispPropsSpacePlan
  3
AecArchBase60
 90
      129
 91
        4
280
     0
281
     0
  0
CLASS
  1
AEC_DISP_REP_SPACE_RCP
  2
AecDbDispRepSpaceRcp
  3
AecArchBase60
 90
      129
 91
        4
280
     0
281
     0
  0
CLASS
  1
AEC_DISP_REP_SPACE_VOLUME
  2
AecDbDispRepSpaceVolume
  3
AecArchBase60
 90
      129
 91
        4
280
     0
281
     0
  0
CLASS
  1
AEC_DISP_REP_SPACE_DECOMPOSED
  2
AecDbDispRepSpaceDecomposed
  3
AecArchBase60
 90
      129
 91
        4
280
     0
281
     0
  0
CLASS
  1
AEC_DISP_PROPS_SPACE_DECOMPOSED
  2
AecDbDispPropsSpaceDecomposed
  3
AecArchBase60
 90
      129
 91
        4
280
     0
281
     0
  0
CLASS
  1
AEC_AECDBDISPREPSPACEPLAN100
  2
AecDbDispRepSpacePlan100
  3
AecBase60
 90
      129
 91
        4
280
     0
281
     0
  0
CLASS
  1
AEC_AECDBDISPREPSPACEPLAN50
  2
AecDbDispRepSpacePlan50
  3
AecBase60
 90
      129
 91
        4
280
     0
281
     0
  0
CLASS
  1
AEC_DISP_REP_STAIR_MODEL
  2
AecDbDispRepStairModel
  3
AecArchBase60
 90
      129
 91
        4
280
     0
281
     0
  0
CLASS
  1
AEC_DISP_PROPS_STAIR_MODEL
  2
AecDbDispPropsStairModel
  3
AecArchBase60
 90
      129
 91
        4
280
     0
281
     0
  0
CLASS
  1
AEC_DISP_REP_STAIR_PLAN
  2
AecDbDispRepStairPlan
  3
AecArchBase60
 90
      129
 91
        7
280
     0
281
     0
  0
CLASS
  1
AEC_DISP_PROPS_STAIR_PLAN
  2
AecDbDispPropsStairPlan
  3
AecArchBase60
 90
      129
 91
        6
280
     0
281
     0
  0
CLASS
  1
AEC_DISP_REP_STAIR_RCP
  2
AecDbDispRepStairRcp
  3
AecArchBase60
 90
      129
 91
        4
280
     0
281
     0
  0
CLASS
  1
AEC_DISP_REP_STAIR_PLAN_100
  2
AecDbDispRepStairPlan100
  3
AecArchDACHBase60
 90
      129
 91
        4
280
     0
281
     0
  0
CLASS
  1
AEC_DISP_ROPS_STAIR_PLAN_100
  2
AecDbDispPropsStairPlan100
  3
AecArchDACHBase60
 90
      129
 91
        4
280
     0
281
     0
  0
CLASS
  1
AEC_DISP_REP_STAIR_PLAN_50
  2
AecDbDispRepStairPlan50
  3
AecArchDACHBase60
 90
      129
 91
        4
280
     0
281
     0
  0
CLASS
  1
AEC_DISP_ROPS_STAIR_PLAN_50
  2
AecDbDispPropsStairPlan50
  3
AecArchDACHBase60
 90
      129
 91
        4
280
     0
281
     0
  0
CLASS
  1
AEC_DISP_REP_STAIR_PLAN_OVERLAPPING
  2
AecDbDispRepStairPlanOverlapping
  3
AecArchBase60
 90
      129
 91
        4
280
     0
281
     0
  0
CLASS
  1
AEC_DISP_PROPS_STAIR_PLAN_OVERLAPPING
  2
AecDbDispPropsStairPlanOverlapping
  3
AecArchBase60
 90
      129
 91
        4
280
     0
281
     0
  0
CLASS
  1
AEC_DISP_REP_WALL_GRAPH
  2
AecDbDispRepWallGraph
  3
AecArchBase60
 90
      129
 91
        4
280
     0
281
     0
  0
CLASS
  1
AEC_DISP_PROPS_WALL_GRAPH
  2
AecDbDispPropsWallGraph
  3
AecArchBase60
 90
      129
 91
        4
280
     0
281
     0
  0
CLASS
  1
AEC_DISP_REP_WALL_MODEL
  2
AecDbDispRepWallModel
  3
AecArchBase60
 90
      129
 91
        4
280
     0
281
     0
  0
CLASS
  1
AEC_DISP_PROPS_WALL_MODEL
  2
AecDbDispPropsWallModel
  3
AecArchBase60
 90
      129
 91
        4
280
     0
281
     0
  0
CLASS
  1
AEC_DISP_REP_WALL_PLAN
  2
AecDbDispRepWallPlan
  3
AecArchBase60
 90
      129
 91
        7
280
     0
281
     0
  0
CLASS
  1
AEC_DISP_PROPS_WALL_PLAN
  2
AecDbDispPropsWallPlan
  3
AecArchBase60
 90
      129
 91
        4
280
     0
281
     0
  0
CLASS
  1
AEC_DISP_REP_WALL_RCP
  2
AecDbDispRepWallRcp
  3
AecArchBase60
 90
      129
 91
        4
280
     0
281
     0
  0
CLASS
  1
AEC_DISP_REP_WALL_SCHEM
  2
AecDbDispRepWallSchem
  3
AecArchBase60
 90
      129
 91
        4
280
     0
281
     0
  0
CLASS
  1
AEC_DISP_PROPS_WALL_SCHEM
  2
AecDbDispPropsWallSchem
  3
AecArchBase60
 90
      129
 91
        4
280
     0
281
     0
  0
CLASS
  1
AEC_AECDBDISPREPWALLPLAN100
  2
AecDbDispRepWallPlan100
  3
AecBase60
 90
      129
 91
        4
280
     0
281
     0
  0
CLASS
  1
AEC_AECDBDISPREPWALLPLAN50
  2
AecDbDispRepWallPlan50
  3
AecBase60
 90
      129
 91
        4
280
     0
281
     0
  0
CLASS
  1
AEC_DISP_REP_WINDOW_MODEL
  2
AecDbDispRepWindowModel
  3
AecArchBase60
 90
      129
 91
        5
280
     0
281
     0
  0
CLASS
  1
AEC_DISP_PROPS_WINDOW
  2
AecDbDispPropsWindow
  3
AecArchBase60
 90
      129
 91
        6
280
     0
281
     0
  0
CLASS
  1
AEC_DISP_REP_WINDOW_ELEV
  2
AecDbDispRepWindowElev
  3
AecArchBase60
 90
      129
 91
        4
280
     0
281
     0
  0
CLASS
  1
AEC_DISP_REP_WINDOW_PLAN
  2
AecDbDispRepWindowPlan
  3
AecArchBase60
 90
      129
 91
        8
280
     0
281
     0
  0
CLASS
  1
AEC_DISP_REP_WINDOW_NOMINAL
  2
AecDbDispRepWindowNominal
  3
AecArchBase60
 90
      129
 91
        4
280
     0
281
     0
  0
CLASS
  1
AEC_DISP_PROPS_WINDOW_NOMINAL
  2
AecDbDispPropsWindowNominal
  3
AecArchBase60
 90
      129
 91
        4
280
     0
281
     0
  0
CLASS
  1
AEC_DISP_REP_WINDOW_RCP
  2
AecDbDispRepWindowRcp
  3
AecArchBase60
 90
      129
 91
        4
280
     0
281
     0
  0
CLASS
  1
AEC_DISP_REP_WINDOW_SILL_PLAN
  2
AecDbDispRepWindowSillPlan
  3
AecArchBase60
 90
      129
 91
        4
280
     0
281
     0
  0
CLASS
  1
AEC_DISP_PROPS_WINDOW_SILL_PLAN
  2
AecDbDispPropsWindowSillPlan
  3
AecArchBase60
 90
      129
 91
        4
280
     0
281
     0
  0
CLASS
  1
AEC_DISP_REP_WINDOW_PLAN_100
  2
AecDbDispRepWindowPlan100
  3
AecArchDACHBase60
 90
      129
 91
        4
280
     0
281
     0
  0
CLASS
  1
AEC_DISP_PROPS_WINDOW_PLAN_100
  2
AecDbDispPropsWindowPlan100
  3
AecArchDACHBase60
 90
      129
 91
        4
280
     0
281
     0
  0
CLASS
  1
AEC_DISP_REP_WINDOW_PLAN_50
  2
AecDbDispRepWindowPlan50
  3
AecArchDACHBase60
 90
      129
 91
        4
280
     0
281
     0
  0
CLASS
  1
AEC_DISP_PROPS_WINDOW_PLAN_50
  2
AecDbDispPropsWindowPlan50
  3
AecArchDACHBase60
 90
      129
 91
        4
280
     0
281
     0
  0
CLASS
  1
AEC_DISP_REP_WINDOW_ASSEMBLY_MODEL
  2
AecDbDispRepWindowAssemblyModel
  3
AecArchBase60
 90
      129
 91
        4
280
     0
281
     0
  0
CLASS
  1
AEC_DISP_REP_WINDOW_ASSEMBLY_PLAN
  2
AecDbDispRepWindowAssemblyPlan
  3
AecArchBase60
 90
      129
 91
        6
280
     0
281
     0
  0
CLASS
  1
AEC_DISP_REP_WINDOWASSEMBLY_SILL_PLAN
  2
AecDbDispRepWindowAssemblySillPlan
  3
AecArchBase60
 90
      129
 91
        4
280
     0
281
     0
  0
CLASS
  1
AEC_DISP_PROPS_WINDOW_ASSEMBLY_SILL_PLAN
  2
AecDbDispPropsWindowAssemblySillPlan
  3
AecArchBase60
 90
      129
 91
        4
280
     0
281
     0
  0
CLASS
  1
AEC_AECDBDISPREPWINDOWASSEMBLYPLAN100
  2
AecDbDispRepWindowAssemblyPlan100
  3
AecBase60
 90
      129
 91
        4
280
     0
281
     0
  0
CLASS
  1
AEC_AECDBDISPREPWINDOWASSEMBLYPLAN50
  2
AecDbDispRepWindowAssemblyPlan50
  3
AecBase60
 90
      129
 91
        4
280
     0
281
     0
  0
CLASS
  1
AEC_DB_DISP_REP_DIM_GROUP_PLAN
  2
AecDbDispRepDimGroupPlan
  3
AecArchDACHBase60
 90
      129
 91
        4
280
     0
281
     0
  0
CLASS
  1
AEC_DISP_PROPS_DIM
  2
AecDbDispPropsDimGroup
  3
AecArchDACHBase60
 90
      129
 91
        4
280
     0
281
     0
  0
CLASS
  1
AEC_DB_DISP_REP_DIM_GROUP_PLAN100
  2
AecDbDispRepDimGroupPlan100
  3
AecArchDACHBase60
 90
      129
 91
        4
280
     0
281
     0
  0
CLASS
  1
AEC_DB_DISP_REP_DIM_GROUP_PLAN50
  2
AecDbDispRepDimGroupPlan50
  3
AecArchDACHBase60
 90
      129
 91
        4
280
     0
281
     0
  0
CLASS
  1
AEC_DISP_REP_SCHEDULE_TABLE
  2
AecDbDispRepScheduleTable
  3
AecSchedule50
 90
      129
 91
        4
280
     0
281
     0
  0
CLASS
  1
AEC_DISP_PROPS_SCHEDULE_TABLE
  2
AecDbDispPropsScheduleTable
  3
AecSchedule50
 90
      129
 91
        4
280
     0
281
     0
  0
CLASS
  1
AEC_DISP_REP_ANCHOR_TAG_TO_ENT
  2
AecDbDispRepAnchorTagToEnt
  3
AecScheduleData60
 90
      129
 91
        5
280
     0
281
     0
  0
CLASS
  1
AEC_DISP_REP_ANCHOR_EXT_TAG_TO_ENT
  2
AecDbDispRepAnchorExtendedTagToEnt
  3
AecScheduleData60
 90
      129
 91
        4
280
     0
281
     0
  0
CLASS
  1
AEC_DISP_REP_SET
  2
AecDbDispRepSet
  3
AecBase60
 90
      129
 91
        4
280
     0
281
     0
  0
CLASS
  1
AECS_DISP_REP_MEMBER_MODEL_DESIGN
  2
AecsDbDispRepMemberModelDesign
  3
AecStructureBase60
 90
      129
 91
        4
280
     0
281
     0
  0
CLASS
  1
AECS_DISP_PROPS_MEMBER
  2
AecsDbDispPropsMember
  3
AecStructureBase60
 90
      129
 91
        6
280
     0
281
     0
  0
CLASS
  1
AECS_DISP_REP_MEMBER_PLAN_DESIGN
  2
AecsDbDispRepMemberPlanDesign
  3
AecStructureBase60
 90
      129
 91
        4
280
     0
281
     0
  0
CLASS
  1
AECS_DISP_PROPS_MEMBER_PLAN
  2
AecsDbDispPropsMemberPlan
  3
AecStructureBase60
 90
      129
 91
        5
280
     0
281
     0
  0
CLASS
  1
AEC_DISP_REP_CONFIG
  2
AecDbDispRepConfig
  3
AecBase60
 90
      129
 91
        4
280
     0
281
     0
  0
CLASS
  1
MLEADERSTYLE
  2
AcDbMLeaderStyle
  3
ACDB_MLEADERSTYLE_CLASS
 90
     4095
 91
        4
280
     0
281
     0
  0
CLASS
  1
AEC_WALL_STYLE
  2
AecDbWallStyle
  3
AecArchBase60
 90
      129
 91
        4
280
     0
281
     0
  0
CLASS
  1
AEC_CLEANUP_GROUP_DEF
  2
AecDbCleanupGroupDef
  3
AecArchBase60
 90
      129
 91
        4
280
     0
281
     0
  0
CLASS
  1
AEC_ENDCAP_STYLE
  2
AecDbEndcapStyle
  3
AecArchBase60
 90
      129
 91
        4
280
     0
281
     0
  0
CLASS
  1
AEC_FRAME_DEF
  2
AecDbOpeningEndcapStyle
  3
AecArchBase60
 90
      129
 91
        4
280
     0
281
     0
  0
CLASS
  1
AEC_MATERIAL_DEF
  2
AecDbMaterialDef
  3
AecBase60
 90
      129
 91
        4
280
     0
281
     0
  0
CLASS
  1
TABLESTYLE
  2
AcDbTableStyle
  3
ObjectDBX Classes
 90
     4095
 91
        4
280
     0
281
     0
  0
CLASS
  1
TCOPTIONALDATA
  2
TcOptionalData
  3
ExTcadCustObjs|Description: TurboCAD extension data object
 90
     4095
 91
        4
280
     0
281
     0
  0
CLASS
  1
CELLSTYLEMAP
  2
AcDbCellStyleMap
  3
ObjectDBX Classes
 90
     1152
 91
        4
280
     0
281
     0
  0
ENDSEC
  0
SECTION
  2
TABLES
  0
TABLE
  2
VPORT
  5
8
330
0
100
AcDbSymbolTable
 70
     1
  0
VPORT
  5
29
330
8
100
AcDbSymbolTableRecord
100
AcDbViewportTableRecord
  2
*Active
 70
     0
 10
0.0
 20
0.0
 11
1.0
 21
1.0
 12
0.0
 22
0.0
 13
0.0
 23
0.0
 14
0.5
 24
0.5
 15
0.5
 25
0.5
 16
0.0
 26
0.0
 36
1.0
 17
2.542956209271882
 27
17.5197712181639
 37
0.0
 40
8.532000000000021
 41
1.830508474576271
 42
50.0
 43
0.0
 44
0.0
 50
0.0
 51
0.0
 71
     0
 72
   100
 73
     1
 74
     3
 75
     0
 76
     0
 77
     0
 78
     0
281
     0
 65
     1
110
0.0
120
0.0
130
0.0
111
1.0
121
0.0
131
0.0
112
0.0
122
1.0
132
0.0
 79
     0
146
0.0
  0
ENDTAB
  0
TABLE
  2
LTYPE
  5
5
330
0
100
AcDbSymbolTable
 70
    12
  0
LTYPE
  5
14
330
5
100
AcDbSymbolTableRecord
100
AcDbLinetypeTableRecord
  2
ByBlock
 70
     0
  3

 72
    65
 73
     0
 40
0.0
  0
LTYPE
  5
15
330
5
100
AcDbSymbolTableRecord
100
AcDbLinetypeTableRecord
  2
ByLayer
 70
     0
  3

 72
    65
 73
     0
 40
0.0
  0
LTYPE
  5
16
330
5
100
AcDbSymbolTableRecord
100
AcDbLinetypeTableRecord
  2
Continuous
 70
     0
  3
Solid line
 72
    65
 73
     0
 40
0.0
  0
LTYPE
  5
153
330
5
100
AcDbSymbolTableRecord
100
AcDbLinetypeTableRecord
  2
BORDER
 70
     0
  3
BORDER
 72
    65
 73
     6
 40
44.44999999999716
 49
12.69999999999919
 74
     0
 49
-6.349999999999594
 74
     0
 49
12.69999999999919
 74
     0
 49
-6.349999999999594
 74
     0
 49
0.0
 74
     0
 49
-6.349999999999594
 74
     0
  0
LTYPE
  5
154
330
5
100
AcDbSymbolTableRecord
100
AcDbLinetypeTableRecord
  2
CENTER
 70
     0
  3
CENTER
 72
    65
 73
     4
 40
50.79999999999675
 49
31.74999999999797
 74
     0
 49
-6.349999999999594
 74
     0
 49
6.349999999999594
 74
     0
 49
-6.349999999999594
 74
     0
  0
LTYPE
  5
155
330
5
100
AcDbSymbolTableRecord
100
AcDbLinetypeTableRecord
  2
DASHDOT
 70
     0
  3
DASHDOT
 72
    65
 73
     4
 40
25.39999999999837
 49
12.69999999999919
 74
     0
 49
-6.349999999999594
 74
     0
 49
0.0
 74
     0
 49
-6.349999999999594
 74
     0
  0
LTYPE
  5
156
330
5
100
AcDbSymbolTableRecord
100
AcDbLinetypeTableRecord
  2
DASHED
 70
     0
  3
DASHED
 72
    65
 73
     2
 40
19.04999999999879
 49
12.69999999999919
 74
     0
 49
-6.349999999999594
 74
     0
  0
LTYPE
  5
157
330
5
100
AcDbSymbolTableRecord
100
AcDbLinetypeTableRecord
  2
DIVIDE
 70
     0
  3
DIVIDE
 72
    65
 73
     6
 40
31.74999999999797
 49
12.69999999999919
 74
     0
 49
-6.349999999999594
 74
     0
 49
0.0
 74
     0
 49
-6.349999999999594
 74
     0
 49
0.0
 74
     0
 49
-6.349999999999594
 74
     0
  0
LTYPE
  5
158
330
5
100
AcDbSymbolTableRecord
100
AcDbLinetypeTableRecord
  2
DOT
 70
     0
  3
DOT
 72
    65
 73
     2
 40
6.349999999999594
 49
0.0
 74
     0
 49
-6.349999999999594
 74
     0
  0
LTYPE
  5
159
330
5
100
AcDbSymbolTableRecord
100
AcDbLinetypeTableRecord
  2
HIDDEN
 70
     0
  3
HIDDEN
 72
    65
 73
     2
 40
9.524999999999391
 49
6.349999999999594
 74
     0
 49
-3.174999999999797
 74
     0
  0
LTYPE
  5
15A
330
5
100
AcDbSymbolTableRecord
100
AcDbLinetypeTableRecord
  2
PHANTOM
 70
     0
  3
PHANTOM
 72
    65
 73
     6
 40
63.49999999999594
 49
31.74999999999797
 74
     0
 49
-6.349999999999594
 74
     0
 49
6.349999999999594
 74
     0
 49
-6.349999999999594
 74
     0
 49
6.349999999999594
 74
     0
 49
-6.349999999999594
 74
     0
  0
LTYPE
  5
15B
330
5
100
AcDbSymbolTableRecord
100
AcDbLinetypeTableRecord
  2
$INVISIBLE
 70
     0
  3
$INVISIBLE
 72
    65
 73
     2
 40
5079.999999999676
 49
-2539.999999999838
 74
     0
 49
-2539.999999999838
 74
     0
  0
LTYPE
  5
15C
330
5
100
AcDbSymbolTableRecord
100
AcDbLinetypeTableRecord
  2
$SNAPEXT
 70
     0
  3
$SNAPEXT
 72
    65
 73
     2
 40
1.015999999999935
 49
0.5079999999999675
 74
     0
 49
-0.5079999999999675
 74
     0
  0
LTYPE
  5
15D
330
5
100
AcDbSymbolTableRecord
100
AcDbLinetypeTableRecord
  2
$AUXILIARY
 70
     0
  3
$AUXILIARY
 72
    65
 73
     2
 40
2.539999999999838
 49
1.269999999999919
 74
     0
 49
-1.269999999999919
 74
     0
  0
ENDTAB
  0
TABLE
  2
LAYER
  5
2
330
0
100
AcDbSymbolTable
 70
     1
  0
LAYER
  5
10
330
2
100
AcDbSymbolTableRecord
100
AcDbLayerTableRecord
  2
0
 70
     0
 62
     7
  6
Continuous
370
     0
390
F
  0
ENDTAB
  0
TABLE
  2
STYLE
  5
3
330
0
100
AcDbSymbolTable
 70
     2
  0
STYLE
  5
11
330
3
100
AcDbSymbolTableRecord
100
AcDbTextStyleTableRecord
  2
Standard
 70
     0
 40
0.0
 41
1.0
 50
0.0
 71
     0
 42
0.2000000327825546
  3
TXT.SHX
  4

  0
STYLE
  5
20F
330
3
100
AcDbSymbolTableRecord
100
AcDbTextStyleTableRecord
  2
_TCW_TXTSTY_1
 70
     0
 40
0.1553158909082413
 41
1.0
 50
0.0
 71
     0
 42
0.1553158909082413
  3
times.ttf
  4

1001
ACAD
1000
Times New Roman
1071
      290
  0
ENDTAB
  0
TABLE
  2
VIEW
  5
6
330
0
100
AcDbSymbolTable
 70
     1
  0
VIEW
  5
15E
330
6
100
AcDbSymbolTableRecord
100
AcDbViewTableRecord
  2
View_0
 70
     0
 40
8.267716535433072
 10
5.846456692913386
 20
4.133858267716536
 41
11.69291338582677
 11
0.0
 21
0.0
 31
1.0
 12
0.0
 22
0.0
 32
0.0
 42
50.0
 43
0.0
 44
0.0
 50
0.0
 71
     0
281
     0
 72
     0
  0
ENDTAB
  0
TABLE
  2
UCS
  5
7
330
0
100
AcDbSymbolTable
 70
     0
  0
ENDTAB
  0
TABLE
  2
APPID
  5
9
330
0
100
AcDbSymbolTable
 70
     9
  0
APPID
  5
12
330
9
100
AcDbSymbolTableRecord
100
AcDbRegAppTableRecord
  2
ACAD
 70
     0
  0
APPID
  5
3F
330
9
100
AcDbSymbolTableRecord
100
AcDbRegAppTableRecord
  2
TCAD
 70
     0
  0
APPID
  5
40
330
9
100
AcDbSymbolTableRecord
100
AcDbRegAppTableRecord
  2
AECBASE
 70
     0
  0
APPID
  5
41
330
9
100
AcDbSymbolTableRecord
100
AcDbRegAppTableRecord
  2
AEC_2DSECTION_XDATA
 70
     0
  0
APPID
  5
42
330
9
100
AcDbSymbolTableRecord
100
AcDbRegAppTableRecord
  2
AEC_MASSGROUP_XDADA
 70
     0
  0
APPID
  5
162
330
9
100
AcDbSymbolTableRecord
100
AcDbRegAppTableRecord
  2
ACAD_MLEADERVER
 70
     0
  0
APPID
  5
2C2
330
9
100
AcDbSymbolTableRecord
100
AcDbRegAppTableRecord
  2
ACAD_DSTYLE_DIM_LINETYPE
 70
     0
  0
APPID
  5
2C3
330
9
100
AcDbSymbolTableRecord
100
AcDbRegAppTableRecord
  2
ACAD_DSTYLE_DIM_EXT1_LINETYPE
 70
     0
  0
APPID
  5
2C4
330
9
100
AcDbSymbolTableRecord
100
AcDbRegAppTableRecord
  2
ACAD_DSTYLE_DIM_EXT2_LINETYPE
 70
     0
  0
ENDTAB
  0
TABLE
  2
DIMSTYLE
  5
A
330
0
100
AcDbSymbolTable
 70
     1
100
AcDbDimStyleTable
  0
DIMSTYLE
105
27
330
A
100
AcDbSymbolTableRecord
100
AcDbDimStyleTableRecord
  2
Standard
 70
     0
  3
 in
340
11
1001
ACAD_DSTYLE_DIM_LINETYPE
1070
   380
1005
14
1001
ACAD_DSTYLE_DIM_EXT1_LINETYPE
1070
   381
1005
14
1001
ACAD_DSTYLE_DIM_EXT2_LINETYPE
1070
   382
1005
14
  0
ENDTAB
  0
TABLE
  2
BLOCK_RECORD
  5
1
330
0
100
AcDbSymbolTable
 70
     3
  0
BLOCK_RECORD
  5
1F
330
1
100
AcDbSymbolTableRecord
100
AcDbBlockTableRecord
  2
*Model_Space
340
22
  0
BLOCK_RECORD
  5
1B
330
1
100
AcDbSymbolTableRecord
100
AcDbBlockTableRecord
  2
*Paper_Space
340
1E
  0
BLOCK_RECORD
  5
14F
330
1
100
AcDbSymbolTableRecord
100
AcDbBlockTableRecord
  2
*Paper_Space2
340
150
  0
ENDTAB
  0
ENDSEC
  0
SECTION
  2
BLOCKS
  0
BLOCK
  5
20
330
1F
100
AcDbEntity
  8
0
100
AcDbBlockBegin
  2
*Model_Space
 70
     0
 10
0.0
 20
0.0
 30
0.0
  3
*Model_Space
  1

  0
ENDBLK
  5
21
330
1F
100
AcDbEntity
  8
0
100
AcDbBlockEnd
  0
BLOCK
  5
1C
330
1B
100
AcDbEntity
 67
     1
  8
0
100
AcDbBlockBegin
  2
*Paper_Space
 70
     0
 10
0.0
 20
0.0
 30
0.0
  3
*Paper_Space
  1

  0
ENDBLK
  5
1D
330
1B
100
AcDbEntity
 67
     1
  8
0
100
AcDbBlockEnd
  0
BLOCK
  5
151
330
14F
100
AcDbEntity
  8
0
100
AcDbBlockBegin
  2
*Paper_Space2
 70
     0
 10
0.0
 20
0.0
 30
0.0
  3
*Paper_Space2
  1

  0
VIEWPORT
  5
2C1
330
14F
100
AcDbEntity
  8
0
100
AcDbViewport
 10
4.14644918647515
 20
17.27510508686024
 30
0.0
 40
9.34
 41
8.532000000000009
 68
     1
 69
     1
 12
4.14644918647515
 22
17.27510508686024
 13
0.0
 23
0.0
 14
0.5
 24
0.5
 15
0.5
 25
0.5
 16
0.0
 26
0.0
 36
1.0
 17
0.0
 27
0.0
 37
0.0
 42
50.0
 43
0.0
 44
0.0
 45
8.532000000000009
 50
0.0
 51
0.0
 72
  1000
 90
    32800
  1

281
     0
 71
     1
 74
     0
110
0.0
120
0.0
130
0.0
111
1.0
121
0.0
131
0.0
112
0.0
122
1.0
132
0.0
 79
     0
146
0.0
170
     0
  0
ENDBLK
  5
152
330
14F
100
AcDbEntity
  8
0
100
AcDbBlockEnd
  0
ENDSEC
  0
SECTION
  2
ENTITIES
  0
CIRCLE
  5
174
330
1F
100
AcDbEntity
  8
0
  6
Continuous
 62
     7
 48
25.39999961853027
370
     0
100
AcDbCircle
 10
0.8909999999999932
 20
18.16049999999999
 30
0.0
 40
0.0629999999999993
  0
LINE
  5
175
330
1F
100
AcDbEntity
  8
0
  6
Continuous
 62
     7
 48
25.39999961853027
370
     0
100
AcDbLine
 10
0.7639999999999981
 20
20.139
 30
0.0
 11
1.013999999999998
 21
20.139
 31
0.0
  0
LINE
  5
176
330
1F
100
AcDbEntity
  8
0
  6
Continuous
 62
     7
 48
25.39999961853027
370
     0
100
AcDbLine
 10
1.013999999999998
 20
20.26299999999999
 30
0.0
 11
0.7639999999999981
 21
20.26299999999999
 31
0.0
  0
LINE
  5
177
330
1F
100
AcDbEntity
  8
0
  6
Continuous
 62
     7
 48
25.39999961853027
370
     0
100
AcDbLine
 10
1.013999999999998
 20
20.139
 30
0.0
 11
1.013999999999998
 21
20.26299999999999
 31
0.0
  0
CIRCLE
  5
178
330
1F
100
AcDbEntity
  8
0
  6
Continuous
 62
     7
 48
25.39999961853027
370
     0
100
AcDbCircle
 10
0.8909999999999932
 20
19.95299999999998
 30
0.0
 40
0.0629999999999993
  0
CIRCLE
  5
179
330
1F
100
AcDbEntity
  8
0
  6
Continuous
 62
     7
 48
25.39999961853027
370
     0
100
AcDbCircle
 10
4.157999999999993
 20
18.16049999999999
 30
0.0
 40
0.0629999999999993
  0
CIRCLE
  5
17A
330
1F
100
AcDbEntity
  8
0
  6
Continuous
 62
     7
 48
25.39999961853027
370
     0
100
AcDbCircle
 10
4.157999999999993
 20
19.06
 30
0.0
 40
0.0629999999999993
  0
LINE
  5
17B
330
1F
100
AcDbEntity
  8
0
  6
Continuous
 62
     7
 48
25.39999961853027
370
     0
100
AcDbLine
 10
0.7639999999999981
 20
20.139
 30
0.0
 11
0.7639999999999981
 21
20.26299999999999
 31
0.0
  0
LINE
  5
17C
330
1F
100
AcDbEntity
  8
0
  6
Continuous
 62
     7
 48
25.39999961853027
370
     0
100
AcDbLine
 10
4.033999999999998
 20
20.139
 30
0.0
 11
4.283999999999998
 21
20.139
 31
0.0
  0
LINE
  5
17D
330
1F
100
AcDbEntity
  8
0
  6
Continuous
 62
     7
 48
25.39999961853027
370
     0
100
AcDbLine
 10
4.283999999999998
 20
20.26299999999999
 30
0.0
 11
4.033999999999998
 21
20.26299999999999
 31
0.0
  0
LINE
  5
17E
330
1F
100
AcDbEntity
  8
0
  6
Continuous
 62
     7
 48
25.39999961853027
370
     0
100
AcDbLine
 10
4.283999999999998
 20
20.139
 30
0.0
 11
4.283999999999998
 21
20.26299999999999
 31
0.0
  0
LINE
  5
17F
330
1F
100
AcDbEntity
  8
0
  6
Continuous
 62
     7
 48
25.39999961853027
370
     0
100
AcDbLine
 10
4.033999999999998
 20
20.139
 30
0.0
 11
4.033999999999998
 21
20.26299999999999
 31
0.0
  0
LINE
  5
180
330
1F
100
AcDbEntity
  8
0
  6
Continuous
 62
     7
 48
25.39999961853027
370
     0
100
AcDbLine
 10
0.7639999999999981
 20
17.83499999999999
 30
0.0
 11
1.013999999999998
 21
17.83499999999999
 31
0.0
  0
LINE
  5
181
330
1F
100
AcDbEntity
  8
0
  6
Continuous
 62
     7
 48
25.39999961853027
370
     0
100
AcDbLine
 10
1.013999999999998
 20
17.95899999999999
 30
0.0
 11
0.7639999999999981
 21
17.95899999999999
 31
0.0
  0
LINE
  5
182
330
1F
100
AcDbEntity
  8
0
  6
Continuous
 62
     7
 48
25.39999961853027
370
     0
100
AcDbLine
 10
1.013999999999998
 20
17.83499999999999
 30
0.0
 11
1.013999999999998
 21
17.95899999999999
 31
0.0
  0
LINE
  5
183
330
1F
100
AcDbEntity
  8
0
  6
Continuous
 62
     7
 48
25.39999961853027
370
     0
100
AcDbLine
 10
0.7639999999999981
 20
17.95899999999999
 30
0.0
 11
0.7639999999999981
 21
17.83499999999999
 31
0.0
  0
LINE
  5
184
330
1F
100
AcDbEntity
  8
0
  6
Continuous
 62
     7
 48
25.39999961853027
370
     0
100
AcDbLine
 10
4.033999999999998
 20
17.83499999999999
 30
0.0
 11
4.283999999999998
 21
17.83499999999999
 31
0.0
  0
LINE
  5
185
330
1F
100
AcDbEntity
  8
0
  6
Continuous
 62
     7
 48
25.39999961853027
370
     0
100
AcDbLine
 10
4.283999999999998
 20
17.95899999999999
 30
0.0
 11
4.033999999999998
 21
17.95899999999999
 31
0.0
  0
LINE
  5
186
330
1F
100
AcDbEntity
  8
0
  6
Continuous
 62
     7
 48
25.39999961853027
370
     0
100
AcDbLine
 10
4.283999999999998
 20
17.83499999999999
 30
0.0
 11
4.283999999999998
 21
17.95899999999999
 31
0.0
  0
LINE
  5
187
330
1F
100
AcDbEntity
  8
0
  6
Continuous
 62
     7
 48
25.39999961853027
370
     0
100
AcDbLine
 10
4.033999999999998
 20
17.95899999999999
 30
0.0
 11
4.033999999999998
 21
17.83499999999999
 31
0.0
  0
ARC
  5
188
330
1F
100
AcDbEntity
  8
0
  6
Continuous
 62
     7
 48
25.39999961853027
370
     0
100
AcDbCircle
 10
-1.242555970149233
 20
19.049
 30
0.0
 40
5.906555970149233
100
AcDbArc
 50
347.7722271761785
 51
12.22777282382131
  0
ARC
  5
189
330
1F
100
AcDbEntity
  8
0
  6
Continuous
 62
     7
 48
25.39999961853027
370
     0
100
AcDbCircle
 10
4.444456678416696
 20
20.28911373335009
 30
0.0
 40
0.0862332341332327
100
AcDbArc
 50
7.252492535362492
 51
82.97714956007411
  0
ARC
  5
18A
330
1F
100
AcDbEntity
  8
0
  6
Continuous
 62
     7
 48
25.39999961853027
370
     0
100
AcDbCircle
 10
4.434249399848325
 20
17.81875060015166
 30
0.0
 40
0.0979732863389844
100
AcDbArc
 50
282.2277728238202
 51
347.7722271761819
  0
ARC
  5
18B
330
1F
100
AcDbEntity
  8
0
  6
Continuous
 62
     7
 48
25.39999961853027
370
     0
100
AcDbCircle
 10
6.280555970149223
 20
19.04899999999999
 30
0.0
 40
5.906555970149231
100
AcDbArc
 50
167.7722271761787
 51
192.2277728238213
  0
ARC
  5
18C
330
1F
100
AcDbEntity
  8
0
  6
Continuous
 62
     7
 48
25.39999961853027
370
     0
100
AcDbCircle
 10
0.5935433215833074
 20
20.28911373335008
 30
0.0
 40
0.0862332341332479
100
AcDbArc
 50
97.02285043992642
 51
172.7475074646245
  0
ARC
  5
18D
330
1F
100
AcDbEntity
  8
0
  6
Continuous
 62
     7
 48
25.39999961853027
370
     0
100
AcDbCircle
 10
0.6037506001516504
 20
17.81875060015166
 30
0.0
 40
0.0979732863389679
100
AcDbArc
 50
192.2277728238159
 51
257.7722271761874
  0
POLYLINE
  5
18E
330
1F
100
AcDbEntity
  8
0
  6
Continuous
 62
     7
 48
25.39999961853027
370
     0
100
AcDb2dPolyline
 66
     1
 10
0.0
 20
0.0
 30
0.0
 70
   132
 75
     6
  0
VERTEX
  5
18F
330
18E
100
AcDbEntity
  8
0
  6
Continuous
 62
     7
 48
25.39999961853027
100
AcDbVertex
100
AcDb2dVertex
 10
4.455000000000004
 20
20.3747
 30
0.0
 70
    16
  0
VERTEX
  5
190
330
18E
100
AcDbEntity
  8
0
  6
Continuous
 62
     7
 48
25.39999961853027
100
AcDbVertex
100
AcDb2dVertex
 10
4.194887707934016
 20
20.41430716801096
 30
0.0
 70
    16
  0
VERTEX
  5
191
330
18E
100
AcDbEntity
  8
0
  6
Continuous
 62
     7
 48
25.39999961853027
100
AcDbVertex
100
AcDb2dVertex
 10
3.73981829037379
 20
20.48360035955833
 30
0.0
 70
    16
  0
VERTEX
  5
192
330
18E
100
AcDbEntity
  8
0
  6
Continuous
 62
     7
 48
25.39999961853027
100
AcDbVertex
100
AcDb2dVertex
 10
3.092905255386361
 20
20.46298098063823
 30
0.0
 70
    16
  0
VERTEX
  5
193
330
18E
100
AcDbEntity
  8
0
  6
Continuous
 62
     7
 48
25.39999961853027
100
AcDbVertex
100
AcDb2dVertex
 10
2.52122294126935
 20
20.38988871483759
 30
0.0
 70
    16
  0
VERTEX
  5
194
330
18E
100
AcDbEntity
  8
0
  6
Continuous
 62
     7
 48
25.39999961853027
100
AcDbVertex
100
AcDb2dVertex
 10
1.899889721454552
 20
20.46916590290323
 30
0.0
 70
    16
  0
VERTEX
  5
195
330
18E
100
AcDbEntity
  8
0
  6
Continuous
 62
     7
 48
25.39999961853027
100
AcDbVertex
100
AcDb2dVertex
 10
1.247415252376611
 20
20.48101619699558
 30
0.0
 70
    16
  0
VERTEX
  5
196
330
18E
100
AcDbEntity
  8
0
  6
Continuous
 62
     7
 48
25.39999961853027
100
AcDbVertex
100
AcDb2dVertex
 10
0.7932655661185124
 20
20.40834557822487
 30
0.0
 70
    16
  0
VERTEX
  5
197
330
18E
100
AcDbEntity
  8
0
  6
Continuous
 62
     7
 48
25.39999961853027
100
AcDbVertex
100
AcDb2dVertex
 10
0.5830000000034868
 20
20.37469999999789
 30
0.0
 70
    16
  0
VERTEX
  5
198
330
18E
100
AcDbEntity
  8
0
  6
Continuous
 62
     7
 48
25.39999961853027
100
AcDbVertex
100
AcDb2dVertex
 10
4.455000000000004
 20
20.3747
 30
0.0
 70
     8
  0
VERTEX
  5
199
330
18E
100
AcDbEntity
  8
0
  6
Continuous
 62
     7
 48
25.39999961853027
100
AcDbVertex
100
AcDb2dVertex
 10
4.358932954793229
 20
20.38928930319454
 30
0.0
 70
     8
  0
VERTEX
  5
19A
330
18E
100
AcDbEntity
  8
0
  6
Continuous
 62
     7
 48
25.39999961853027
100
AcDbVertex
100
AcDb2dVertex
 10
4.265607998628171
 20
20.40322840482618
 30
0.0
 70
     8
  0
VERTEX
  5
19B
330
18E
100
AcDbEntity
  8
0
  6
Continuous
 62
     7
 48
25.39999961853027
100
AcDbVertex
100
AcDb2dVertex
 10
4.174713072113499
 20
20.41633215697927
 30
0.0
 70
     8
  0
VERTEX
  5
19C
330
18E
100
AcDbEntity
  8
0
  6
Continuous
 62
     7
 48
25.39999961853027
100
AcDbVertex
100
AcDb2dVertex
 10
4.08593611585788
 20
20.42841541173812
 30
0.0
 70
     8
  0
VERTEX
  5
19D
330
18E
100
AcDbEntity
  8
0
  6
Continuous
 62
     7
 48
25.39999961853027
100
AcDbVertex
100
AcDb2dVertex
 10
3.998965070469981
 20
20.43929302118709
 30
0.0
 70
     8
  0
VERTEX
  5
19E
330
18E
100
AcDbEntity
  8
0
  6
Continuous
 62
     7
 48
25.39999961853027
100
AcDbVertex
100
AcDb2dVertex
 10
3.913487876558469
 20
20.44877983741053
 30
0.0
 70
     8
  0
VERTEX
  5
19F
330
18E
100
AcDbEntity
  8
0
  6
Continuous
 62
     7
 48
25.39999961853027
100
AcDbVertex
100
AcDb2dVertex
 10
3.829192474732012
 20
20.45669071249276
 30
0.0
 70
     8
  0
VERTEX
  5
1A0
330
18E
100
AcDbEntity
  8
0
  6
Continuous
 62
     7
 48
25.39999961853027
100
AcDbVertex
100
AcDb2dVertex
 10
3.745766805599277
 20
20.46284049851813
 30
0.0
 70
     8
  0
VERTEX
  5
1A1
330
18E
100
AcDbEntity
  8
0
  6
Continuous
 62
     7
 48
25.39999961853027
100
AcDbVertex
100
AcDb2dVertex
 10
3.662963690640634
 20
20.46709837114267
 30
0.0
 70
     8
  0
VERTEX
  5
1A2
330
18E
100
AcDbEntity
  8
0
  6
Continuous
 62
     7
 48
25.39999961853027
100
AcDbVertex
100
AcDb2dVertex
 10
3.580795474823284
 20
20.46955080030905
 30
0.0
 70
     8
  0
VERTEX
  5
1A3
330
18E
100
AcDbEntity
  8
0
  6
Continuous
 62
     7
 48
25.39999961853027
100
AcDbVertex
100
AcDb2dVertex
 10
3.499339383986126
 20
20.47033857953168
 30
0.0
 70
     8
  0
VERTEX
  5
1A4
330
18E
100
AcDbEntity
  8
0
  6
Continuous
 62
     7
 48
25.39999961853027
100
AcDbVertex
100
AcDb2dVertex
 10
3.418672643968062
 20
20.46960250232491
 30
0.0
 70
     8
  0
VERTEX
  5
1A5
330
18E
100
AcDbEntity
  8
0
  6
Continuous
 62
     7
 48
25.39999961853027
100
AcDbVertex
100
AcDb2dVertex
 10
3.338872480607992
 20
20.46748336220313
 30
0.0
 70
     8
  0
VERTEX
  5
1A6
330
18E
100
AcDbEntity
  8
0
  6
Continuous
 62
     7
 48
25.39999961853027
100
AcDbVertex
100
AcDb2dVertex
 10
3.260016119744818
 20
20.46412195268071
 30
0.0
 70
     8
  0
VERTEX
  5
1A7
330
18E
100
AcDbEntity
  8
0
  6
Continuous
 62
     7
 48
25.39999961853027
100
AcDbVertex
100
AcDb2dVertex
 10
3.182180787217442
 20
20.45965906727204
 30
0.0
 70
     8
  0
VERTEX
  5
1A8
330
18E
100
AcDbEntity
  8
0
  6
Continuous
 62
     7
 48
25.39999961853027
100
AcDbVertex
100
AcDb2dVertex
 10
3.105443708864765
 20
20.45423549949147
 30
0.0
 70
     8
  0
VERTEX
  5
1A9
330
18E
100
AcDbEntity
  8
0
  6
Continuous
 62
     7
 48
25.39999961853027
100
AcDbVertex
100
AcDb2dVertex
 10
3.029828587981388
 20
20.44803525771714
 30
0.0
 70
     8
  0
VERTEX
  5
1AA
330
18E
100
AcDbEntity
  8
0
  6
Continuous
 62
     7
 48
25.39999961853027
100
AcDbVertex
100
AcDb2dVertex
 10
2.955145037684721
 20
20.44141520978206
 30
0.0
 70
     8
  0
VERTEX
  5
1AB
330
18E
100
AcDbEntity
  8
0
  6
Continuous
 62
     7
 48
25.39999961853027
100
AcDbVertex
100
AcDb2dVertex
 10
2.881149148547873
 20
20.43477543838302
 30
0.0
 70
     8
  0
VERTEX
  5
1AC
330
18E
100
AcDbEntity
  8
0
  6
Continuous
 62
     7
 48
25.39999961853027
100
AcDbVertex
100
AcDb2dVertex
 10
2.807597011143951
 20
20.42851602621678
 30
0.0
 70
     8
  0
VERTEX
  5
1AD
330
18E
100
AcDbEntity
  8
0
  6
Continuous
 62
     7
 48
25.39999961853027
100
AcDbVertex
100
AcDb2dVertex
 10
2.734244716046066
 20
20.42303705598012
 30
0.0
 70
     8
  0
VERTEX
  5
1AE
330
18E
100
AcDbEntity
  8
0
  6
Continuous
 62
     7
 48
25.39999961853027
100
AcDbVertex
100
AcDb2dVertex
 10
2.660848353827327
 20
20.4187386103698
 30
0.0
 70
     8
  0
VERTEX
  5
1AF
330
18E
100
AcDbEntity
  8
0
  6
Continuous
 62
     7
 48
25.39999961853027
100
AcDbVertex
100
AcDb2dVertex
 10
2.587164015060841
 20
20.41602077208261
 30
0.0
 70
     8
  0
VERTEX
  5
1B0
330
18E
100
AcDbEntity
  8
0
  6
Continuous
 62
     7
 48
25.39999961853027
100
AcDbVertex
100
AcDb2dVertex
 10
2.512947790319719
 20
20.41528362381531
 30
0.0
 70
     8
  0
VERTEX
  5
1B1
330
18E
100
AcDbEntity
  8
0
  6
Continuous
 62
     7
 48
25.39999961853027
100
AcDbVertex
100
AcDb2dVertex
 10
2.438002447027004
 20
20.41678901952488
 30
0.0
 70
     8
  0
VERTEX
  5
1B2
330
18E
100
AcDbEntity
  8
0
  6
Continuous
 62
     7
 48
25.39999961853027
100
AcDbVertex
100
AcDb2dVertex
 10
2.362317460005485
 20
20.42024589820925
 30
0.0
 70
     8
  0
VERTEX
  5
1B3
330
18E
100
AcDbEntity
  8
0
  6
Continuous
 62
     7
 48
25.39999961853027
100
AcDbVertex
100
AcDb2dVertex
 10
2.285928980927887
 20
20.42522497012653
 30
0.0
 70
     8
  0
VERTEX
  5
1B4
330
18E
100
AcDbEntity
  8
0
  6
Continuous
 62
     7
 48
25.39999961853027
100
AcDbVertex
100
AcDb2dVertex
 10
2.208873161466932
 20
20.43129694553485
 30
0.0
 70
     8
  0
VERTEX
  5
1B5
330
18E
100
AcDbEntity
  8
0
  6
Continuous
 62
     7
 48
25.39999961853027
100
AcDbVertex
100
AcDb2dVertex
 10
2.131186153295345
 20
20.43803253469233
 30
0.0
 70
     8
  0
VERTEX
  5
1B6
330
18E
100
AcDbEntity
  8
0
  6
Continuous
 62
     7
 48
25.39999961853027
100
AcDbVertex
100
AcDb2dVertex
 10
2.052904108085849
 20
20.4450024478571
 30
0.0
 70
     8
  0
VERTEX
  5
1B7
330
18E
100
AcDbEntity
  8
0
  6
Continuous
 62
     7
 48
25.39999961853027
100
AcDbVertex
100
AcDb2dVertex
 10
1.974063177511169
 20
20.45177739528729
 30
0.0
 70
     8
  0
VERTEX
  5
1B8
330
18E
100
AcDbEntity
  8
0
  6
Continuous
 62
     7
 48
25.39999961853027
100
AcDbVertex
100
AcDb2dVertex
 10
1.894699513244028
 20
20.45792808724102
 30
0.0
 70
     8
  0
VERTEX
  5
1B9
330
18E
100
AcDbEntity
  8
0
  6
Continuous
 62
     7
 48
25.39999961853027
100
AcDbVertex
100
AcDb2dVertex
 10
1.814844020060185
 20
20.46307938990726
 30
0.0
 70
     8
  0
VERTEX
  5
1BA
330
18E
100
AcDbEntity
  8
0
  6
Continuous
 62
     7
 48
25.39999961853027
100
AcDbVertex
100
AcDb2dVertex
 10
1.73450661514753
 20
20.46707279319838
 30
0.0
 70
     8
  0
VERTEX
  5
1BB
330
18E
100
AcDbEntity
  8
0
  6
Continuous
 62
     7
 48
25.39999961853027
100
AcDbVertex
100
AcDb2dVertex
 10
1.65369196879699
 20
20.4698039429576
 30
0.0
 70
     8
  0
VERTEX
  5
1BC
330
18E
100
AcDbEntity
  8
0
  6
Continuous
 62
     7
 48
25.39999961853027
100
AcDbVertex
100
AcDb2dVertex
 10
1.572404751299491
 20
20.47116848502812
 30
0.0
 70
     8
  0
VERTEX
  5
1BD
330
18E
100
AcDbEntity
  8
0
  6
Continuous
 62
     7
 48
25.39999961853027
100
AcDbVertex
100
AcDb2dVertex
 10
1.490649632945958
 20
20.47106206525316
 30
0.0
 70
     8
  0
VERTEX
  5
1BE
330
18E
100
AcDbEntity
  8
0
  6
Continuous
 62
     7
 48
25.39999961853027
100
AcDbVertex
100
AcDb2dVertex
 10
1.408431284027316
 20
20.46938032947593
 30
0.0
 70
     8
  0
VERTEX
  5
1BF
330
18E
100
AcDbEntity
  8
0
  6
Continuous
 62
     7
 48
25.39999961853027
100
AcDbVertex
100
AcDb2dVertex
 10
1.325754374834491
 20
20.46601892353964
 30
0.0
 70
     8
  0
VERTEX
  5
1C0
330
18E
100
AcDbEntity
  8
0
  6
Continuous
 62
     7
 48
25.39999961853027
100
AcDbVertex
100
AcDb2dVertex
 10
1.24262357565841
 20
20.46087349328751
 30
0.0
 70
     8
  0
VERTEX
  5
1C1
330
18E
100
AcDbEntity
  8
0
  6
Continuous
 62
     7
 48
25.39999961853027
100
AcDbVertex
100
AcDb2dVertex
 10
1.159084967770935
 20
20.45390167152156
 30
0.0
 70
     8
  0
VERTEX
  5
1C2
330
18E
100
AcDbEntity
  8
0
  6
Continuous
 62
     7
 48
25.39999961853027
100
AcDbVertex
100
AcDb2dVertex
 10
1.075350276367677
 20
20.44530903887907
 30
0.0
 70
     8
  0
VERTEX
  5
1C3
330
18E
100
AcDbEntity
  8
0
  6
Continuous
 62
     7
 48
25.39999961853027
100
AcDbVertex
100
AcDb2dVertex
 10
0.9916726376251873
 20
20.43536316295613
 30
0.0
 70
     8
  0
VERTEX
  5
1C4
330
18E
100
AcDbEntity
  8
0
  6
Continuous
 62
     7
 48
25.39999961853027
100
AcDbVertex
100
AcDb2dVertex
 10
0.9083051877200147
 20
20.42433161134884
 30
0.0
 70
     8
  0
VERTEX
  5
1C5
330
18E
100
AcDbEntity
  8
0
  6
Continuous
 62
     7
 48
25.39999961853027
100
AcDbVertex
100
AcDb2dVertex
 10
0.8255010628287089
 20
20.41248195165327
 30
0.0
 70
     8
  0
VERTEX
  5
1C6
330
18E
100
AcDbEntity
  8
0
  6
Continuous
 62
     7
 48
25.39999961853027
100
AcDbVertex
100
AcDb2dVertex
 10
0.7435133991278192
 20
20.40008175146553
 30
0.0
 70
     8
  0
VERTEX
  5
1C7
330
18E
100
AcDbEntity
  8
0
  6
Continuous
 62
     7
 48
25.39999961853027
100
AcDbVertex
100
AcDb2dVertex
 10
0.6625953327938954
 20
20.38739857838171
 30
0.0
 70
     8
  0
VERTEX
  5
1C8
330
18E
100
AcDbEntity
  8
0
  6
Continuous
 62
     7
 48
25.39999961853027
100
AcDbVertex
100
AcDb2dVertex
 10
0.5830000000034865
 20
20.37469999999789
 30
0.0
 70
     8
  0
SEQEND
  5
1C9
330
18E
100
AcDbEntity
  8
0
  6
Continuous
 62
     7
 48
25.39999961853027
370
     0
  0
POLYLINE
  5
1CA
330
1F
100
AcDbEntity
  8
0
  6
Continuous
 62
     7
 48
25.39999961853027
370
     0
100
AcDb2dPolyline
 66
     1
 10
0.0
 20
0.0
 30
0.0
 70
   132
 75
     6
  0
VERTEX
  5
1CB
330
1CA
100
AcDbEntity
  8
0
  6
Continuous
 62
     7
 48
25.39999961853027
100
AcDbVertex
100
AcDb2dVertex
 10
4.455
 20
17.72299999999999
 30
0.0
 70
    16
  0
VERTEX
  5
1CC
330
1CA
100
AcDbEntity
  8
0
  6
Continuous
 62
     7
 48
25.39999961853027
100
AcDbVertex
100
AcDb2dVertex
 10
4.194887707934013
 20
17.68339283198904
 30
0.0
 70
    16
  0
VERTEX
  5
1CD
330
1CA
100
AcDbEntity
  8
0
  6
Continuous
 62
     7
 48
25.39999961853027
100
AcDbVertex
100
AcDb2dVertex
 10
3.739818290373787
 20
17.61409964044167
 30
0.0
 70
    16
  0
VERTEX
  5
1CE
330
1CA
100
AcDbEntity
  8
0
  6
Continuous
 62
     7
 48
25.39999961853027
100
AcDbVertex
100
AcDb2dVertex
 10
3.092905255386358
 20
17.63471901936174
 30
0.0
 70
    16
  0
VERTEX
  5
1CF
330
1CA
100
AcDbEntity
  8
0
  6
Continuous
 62
     7
 48
25.39999961853027
100
AcDbVertex
100
AcDb2dVertex
 10
2.521222941269346
 20
17.70781128516241
 30
0.0
 70
    16
  0
VERTEX
  5
1D0
330
1CA
100
AcDbEntity
  8
0
  6
Continuous
 62
     7
 48
25.39999961853027
100
AcDbVertex
100
AcDb2dVertex
 10
1.899889721454548
 20
17.62853409709676
 30
0.0
 70
    16
  0
VERTEX
  5
1D1
330
1CA
100
AcDbEntity
  8
0
  6
Continuous
 62
     7
 48
25.39999961853027
100
AcDbVertex
100
AcDb2dVertex
 10
1.247415252376606
 20
17.61668380300439
 30
0.0
 70
    16
  0
VERTEX
  5
1D2
330
1CA
100
AcDbEntity
  8
0
  6
Continuous
 62
     7
 48
25.39999961853027
100
AcDbVertex
100
AcDb2dVertex
 10
0.7932655661185084
 20
17.68935442177511
 30
0.0
 70
    16
  0
VERTEX
  5
1D3
330
1CA
100
AcDbEntity
  8
0
  6
Continuous
 62
     7
 48
25.39999961853027
100
AcDbVertex
100
AcDb2dVertex
 10
0.5830000000034832
 20
17.7230000000021
 30
0.0
 70
    16
  0
VERTEX
  5
1D4
330
1CA
100
AcDbEntity
  8
0
  6
Continuous
 62
     7
 48
25.39999961853027
100
AcDbVertex
100
AcDb2dVertex
 10
4.455
 20
17.72299999999999
 30
0.0
 70
     8
  0
VERTEX
  5
1D5
330
1CA
100
AcDbEntity
  8
0
  6
Continuous
 62
     7
 48
25.39999961853027
100
AcDbVertex
100
AcDb2dVertex
 10
4.358932954793225
 20
17.70841069680545
 30
0.0
 70
     8
  0
VERTEX
  5
1D6
330
1CA
100
AcDbEntity
  8
0
  6
Continuous
 62
     7
 48
25.39999961853027
100
AcDbVertex
100
AcDb2dVertex
 10
4.265607998628168
 20
17.69447159517381
 30
0.0
 70
     8
  0
VERTEX
  5
1D7
330
1CA
100
AcDbEntity
  8
0
  6
Continuous
 62
     7
 48
25.39999961853027
100
AcDbVertex
100
AcDb2dVertex
 10
4.174713072113496
 20
17.68136784302073
 30
0.0
 70
     8
  0
VERTEX
  5
1D8
330
1CA
100
AcDbEntity
  8
0
  6
Continuous
 62
     7
 48
25.39999961853027
100
AcDbVertex
100
AcDb2dVertex
 10
4.085936115857876
 20
17.66928458826188
 30
0.0
 70
     8
  0
VERTEX
  5
1D9
330
1CA
100
AcDbEntity
  8
0
  6
Continuous
 62
     7
 48
25.39999961853027
100
AcDbVertex
100
AcDb2dVertex
 10
3.998965070469977
 20
17.6584069788129
 30
0.0
 70
     8
  0
VERTEX
  5
1DA
330
1CA
100
AcDbEntity
  8
0
  6
Continuous
 62
     7
 48
25.39999961853027
100
AcDbVertex
100
AcDb2dVertex
 10
3.913487876558464
 20
17.64892016258947
 30
0.0
 70
     8
  0
VERTEX
  5
1DB
330
1CA
100
AcDbEntity
  8
0
  6
Continuous
 62
     7
 48
25.39999961853027
100
AcDbVertex
100
AcDb2dVertex
 10
3.829192474732007
 20
17.64100928750724
 30
0.0
 70
     8
  0
VERTEX
  5
1DC
330
1CA
100
AcDbEntity
  8
0
  6
Continuous
 62
     7
 48
25.39999961853027
100
AcDbVertex
100
AcDb2dVertex
 10
3.745766805599271
 20
17.63485950148186
 30
0.0
 70
     8
  0
VERTEX
  5
1DD
330
1CA
100
AcDbEntity
  8
0
  6
Continuous
 62
     7
 48
25.39999961853027
100
AcDbVertex
100
AcDb2dVertex
 10
3.662963690640631
 20
17.63060162885732
 30
0.0
 70
     8
  0
VERTEX
  5
1DE
330
1CA
100
AcDbEntity
  8
0
  6
Continuous
 62
     7
 48
25.39999961853027
100
AcDbVertex
100
AcDb2dVertex
 10
3.580795474823281
 20
17.62814919969093
 30
0.0
 70
     8
  0
VERTEX
  5
1DF
330
1CA
100
AcDbEntity
  8
0
  6
Continuous
 62
     7
 48
25.39999961853027
100
AcDbVertex
100
AcDb2dVertex
 10
3.499339383986123
 20
17.62736142046831
 30
0.0
 70
     8
  0
VERTEX
  5
1E0
330
1CA
100
AcDbEntity
  8
0
  6
Continuous
 62
     7
 48
25.39999961853027
100
AcDbVertex
100
AcDb2dVertex
 10
3.418672643968059
 20
17.62809749767507
 30
0.0
 70
     8
  0
VERTEX
  5
1E1
330
1CA
100
AcDbEntity
  8
0
  6
Continuous
 62
     7
 48
25.39999961853027
100
AcDbVertex
100
AcDb2dVertex
 10
3.338872480607988
 20
17.63021663779685
 30
0.0
 70
     8
  0
VERTEX
  5
1E2
330
1CA
100
AcDbEntity
  8
0
  6
Continuous
 62
     7
 48
25.39999961853027
100
AcDbVertex
100
AcDb2dVertex
 10
3.260016119744815
 20
17.63357804731927
 30
0.0
 70
     8
  0
VERTEX
  5
1E3
330
1CA
100
AcDbEntity
  8
0
  6
Continuous
 62
     7
 48
25.39999961853027
100
AcDbVertex
100
AcDb2dVertex
 10
3.182180787217439
 20
17.63804093272794
 30
0.0
 70
     8
  0
VERTEX
  5
1E4
330
1CA
100
AcDbEntity
  8
0
  6
Continuous
 62
     7
 48
25.39999961853027
100
AcDbVertex
100
AcDb2dVertex
 10
3.105443708864761
 20
17.64346450050851
 30
0.0
 70
     8
  0
VERTEX
  5
1E5
330
1CA
100
AcDbEntity
  8
0
  6
Continuous
 62
     7
 48
25.39999961853027
100
AcDbVertex
100
AcDb2dVertex
 10
3.029828587981385
 20
17.64966474228285
 30
0.0
 70
     8
  0
VERTEX
  5
1E6
330
1CA
100
AcDbEntity
  8
0
  6
Continuous
 62
     7
 48
25.39999961853027
100
AcDbVertex
100
AcDb2dVertex
 10
2.955145037684718
 20
17.65628479021792
 30
0.0
 70
     8
  0
VERTEX
  5
1E7
330
1CA
100
AcDbEntity
  8
0
  6
Continuous
 62
     7
 48
25.39999961853027
100
AcDbVertex
100
AcDb2dVertex
 10
2.88114914854787
 20
17.66292456161697
 30
0.0
 70
     8
  0
VERTEX
  5
1E8
330
1CA
100
AcDbEntity
  8
0
  6
Continuous
 62
     7
 48
25.39999961853027
100
AcDbVertex
100
AcDb2dVertex
 10
2.807597011143948
 20
17.6691839737832
 30
0.0
 70
     8
  0
VERTEX
  5
1E9
330
1CA
100
AcDbEntity
  8
0
  6
Continuous
 62
     7
 48
25.39999961853027
100
AcDbVertex
100
AcDb2dVertex
 10
2.734244716046063
 20
17.67466294401987
 30
0.0
 70
     8
  0
VERTEX
  5
1EA
330
1CA
100
AcDbEntity
  8
0
  6
Continuous
 62
     7
 48
25.39999961853027
100
AcDbVertex
100
AcDb2dVertex
 10
2.660848353827324
 20
17.67896138963018
 30
0.0
 70
     8
  0
VERTEX
  5
1EB
330
1CA
100
AcDbEntity
  8
0
  6
Continuous
 62
     7
 48
25.39999961853027
100
AcDbVertex
100
AcDb2dVertex
 10
2.587164015060838
 20
17.68167922791739
 30
0.0
 70
     8
  0
VERTEX
  5
1EC
330
1CA
100
AcDbEntity
  8
0
  6
Continuous
 62
     7
 48
25.39999961853027
100
AcDbVertex
100
AcDb2dVertex
 10
2.512947790319715
 20
17.68241637618469
 30
0.0
 70
     8
  0
VERTEX
  5
1ED
330
1CA
100
AcDbEntity
  8
0
  6
Continuous
 62
     7
 48
25.39999961853027
100
AcDbVertex
100
AcDb2dVertex
 10
2.438002447027001
 20
17.68091098047511
 30
0.0
 70
     8
  0
VERTEX
  5
1EE
330
1CA
100
AcDbEntity
  8
0
  6
Continuous
 62
     7
 48
25.39999961853027
100
AcDbVertex
100
AcDb2dVertex
 10
2.362317460005481
 20
17.67745410179074
 30
0.0
 70
     8
  0
VERTEX
  5
1EF
330
1CA
100
AcDbEntity
  8
0
  6
Continuous
 62
     7
 48
25.39999961853027
100
AcDbVertex
100
AcDb2dVertex
 10
2.285928980927883
 20
17.67247502987347
 30
0.0
 70
     8
  0
VERTEX
  5
1F0
330
1CA
100
AcDbEntity
  8
0
  6
Continuous
 62
     7
 48
25.39999961853027
100
AcDbVertex
100
AcDb2dVertex
 10
2.208873161466928
 20
17.66640305446515
 30
0.0
 70
     8
  0
VERTEX
  5
1F1
330
1CA
100
AcDbEntity
  8
0
  6
Continuous
 62
     7
 48
25.39999961853027
100
AcDbVertex
100
AcDb2dVertex
 10
2.131186153295341
 20
17.65966746530766
 30
0.0
 70
     8
  0
VERTEX
  5
1F2
330
1CA
100
AcDbEntity
  8
0
  6
Continuous
 62
     7
 48
25.39999961853027
100
AcDbVertex
100
AcDb2dVertex
 10
2.052904108085845
 20
17.65269755214289
 30
0.0
 70
     8
  0
VERTEX
  5
1F3
330
1CA
100
AcDbEntity
  8
0
  6
Continuous
 62
     7
 48
25.39999961853027
100
AcDbVertex
100
AcDb2dVertex
 10
1.974063177511165
 20
17.64592260471271
 30
0.0
 70
     8
  0
VERTEX
  5
1F4
330
1CA
100
AcDbEntity
  8
0
  6
Continuous
 62
     7
 48
25.39999961853027
100
AcDbVertex
100
AcDb2dVertex
 10
1.894699513244025
 20
17.63977191275897
 30
0.0
 70
     8
  0
VERTEX
  5
1F5
330
1CA
100
AcDbEntity
  8
0
  6
Continuous
 62
     7
 48
25.39999961853027
100
AcDbVertex
100
AcDb2dVertex
 10
1.814844020060181
 20
17.63462061009273
 30
0.0
 70
     8
  0
VERTEX
  5
1F6
330
1CA
100
AcDbEntity
  8
0
  6
Continuous
 62
     7
 48
25.39999961853027
100
AcDbVertex
100
AcDb2dVertex
 10
1.734506615147526
 20
17.63062720680161
 30
0.0
 70
     8
  0
VERTEX
  5
1F7
330
1CA
100
AcDbEntity
  8
0
  6
Continuous
 62
     7
 48
25.39999961853027
100
AcDbVertex
100
AcDb2dVertex
 10
1.653691968796986
 20
17.62789605704238
 30
0.0
 70
     8
  0
VERTEX
  5
1F8
330
1CA
100
AcDbEntity
  8
0
  6
Continuous
 62
     7
 48
25.39999961853027
100
AcDbVertex
100
AcDb2dVertex
 10
1.572404751299486
 20
17.62653151497186
 30
0.0
 70
     8
  0
VERTEX
  5
1F9
330
1CA
100
AcDbEntity
  8
0
  6
Continuous
 62
     7
 48
25.39999961853027
100
AcDbVertex
100
AcDb2dVertex
 10
1.490649632945953
 20
17.62663793474682
 30
0.0
 70
     8
  0
VERTEX
  5
1FA
330
1CA
100
AcDbEntity
  8
0
  6
Continuous
 62
     7
 48
25.39999961853027
100
AcDbVertex
100
AcDb2dVertex
 10
1.408431284027311
 20
17.62831967052406
 30
0.0
 70
     8
  0
VERTEX
  5
1FB
330
1CA
100
AcDbEntity
  8
0
  6
Continuous
 62
     7
 48
25.39999961853027
100
AcDbVertex
100
AcDb2dVertex
 10
1.325754374834487
 20
17.63168107646034
 30
0.0
 70
     8
  0
VERTEX
  5
1FC
330
1CA
100
AcDbEntity
  8
0
  6
Continuous
 62
     7
 48
25.39999961853027
100
AcDbVertex
100
AcDb2dVertex
 10
1.242623575658405
 20
17.63682650671247
 30
0.0
 70
     8
  0
VERTEX
  5
1FD
330
1CA
100
AcDbEntity
  8
0
  6
Continuous
 62
     7
 48
25.39999961853027
100
AcDbVertex
100
AcDb2dVertex
 10
1.15908496777093
 20
17.64379832847842
 30
0.0
 70
     8
  0
VERTEX
  5
1FE
330
1CA
100
AcDbEntity
  8
0
  6
Continuous
 62
     7
 48
25.39999961853027
100
AcDbVertex
100
AcDb2dVertex
 10
1.075350276367672
 20
17.65239096112091
 30
0.0
 70
     8
  0
VERTEX
  5
1FF
330
1CA
100
AcDbEntity
  8
0
  6
Continuous
 62
     7
 48
25.39999961853027
100
AcDbVertex
100
AcDb2dVertex
 10
0.991672637625183
 20
17.66233683704385
 30
0.0
 70
     8
  0
VERTEX
  5
200
330
1CA
100
AcDbEntity
  8
0
  6
Continuous
 62
     7
 48
25.39999961853027
100
AcDbVertex
100
AcDb2dVertex
 10
0.9083051877200106
 20
17.67336838865115
 30
0.0
 70
     8
  0
VERTEX
  5
201
330
1CA
100
AcDbEntity
  8
0
  6
Continuous
 62
     7
 48
25.39999961853027
100
AcDbVertex
100
AcDb2dVertex
 10
0.825501062828705
 20
17.68521804834671
 30
0.0
 70
     8
  0
VERTEX
  5
202
330
1CA
100
AcDbEntity
  8
0
  6
Continuous
 62
     7
 48
25.39999961853027
100
AcDbVertex
100
AcDb2dVertex
 10
0.7435133991278153
 20
17.69761824853445
 30
0.0
 70
     8
  0
VERTEX
  5
203
330
1CA
100
AcDbEntity
  8
0
  6
Continuous
 62
     7
 48
25.39999961853027
100
AcDbVertex
100
AcDb2dVertex
 10
0.6625953327938917
 20
17.71030142161828
 30
0.0
 70
     8
  0
VERTEX
  5
204
330
1CA
100
AcDbEntity
  8
0
  6
Continuous
 62
     7
 48
25.39999961853027
100
AcDbVertex
100
AcDb2dVertex
 10
0.5830000000034831
 20
17.7230000000021
 30
0.0
 70
     8
  0
SEQEND
  5
205
330
1CA
100
AcDbEntity
  8
0
  6
Continuous
 62
     7
 48
25.39999961853027
370
     0
  0
LWPOLYLINE
  5
208
102
{ACAD_XDICTIONARY
360
206
102
}
330
1F
100
AcDbEntity
  8
0
  6
Continuous
 62
     7
370
     0
100
AcDbPolyline
 90
        8
 70
   129
 43
0.0
 10
3.907999999999993
 20
18.10899999999999
 42
0.4142135623730716
 10
3.957999999999993
 20
18.15899999999999
 10
3.957999999999994
 20
19.939
 42
0.4142135623730951
 10
3.907999999999994
 20
19.989
 10
1.140999999999993
 20
19.989
 42
0.4142135623730951
 10
1.090999999999993
 20
19.939
 10
1.090999999999993
 20
18.15899999999999
 42
0.4142135623731107
 10
1.140999999999993
 20
18.10899999999999
  0
CIRCLE
  5
20B
102
{ACAD_XDICTIONARY
360
209
102
}
330
1F
100
AcDbEntity
  8
0
  6
Continuous
 62
     7
370
     0
100
AcDbCircle
 10
2.524499999999989
 20
19.04899999999999
 30
0.0
 40
0.0625
  0
LWPOLYLINE
  5
20E
102
{ACAD_XDICTIONARY
360
20C
102
}
330
1F
100
AcDbEntity
  8
0
  6
Continuous
 62
     7
370
     0
100
AcDbPolyline
 90
        4
 70
   129
 43
0.0
 10
0.0
 20
15.0
 10
-1.0
 20
15.0
 10
-1.0
 20
16.0
 10
0.0
 20
16.0
  0
TEXT
  5
212
102
{ACAD_XDICTIONARY
360
210
102
}
330
1F
100
AcDbEntity
  8
0
  6
Continuous
 62
     7
100
AcDbText
 10
-1.085387351131084
 20
14.74881592781499
 30
0.0
 40
0.155315887928009
  1
1 inch square
  7
_TCW_TXTSTY_1
 11
-1.085387351131084
 21
14.904131815743
 31
0.0
100
AcDbText
 73
     3
  0
CIRCLE
  5
213
330
1F
100
AcDbEntity
  8
0
  6
Continuous
 62
     7
 48
25.39999961853027
370
     0
100
AcDbCircle
 10
0.8909999999999978
 20
15.11165
 30
0.0
 40
0.0629999999999993
  0
LINE
  5
214
330
1F
100
AcDbEntity
  8
0
  6
Continuous
 62
     7
 48
25.39999961853027
370
     0
100
AcDbLine
 10
0.7640000000000025
 20
17.09015000000001
 30
0.0
 11
1.014000000000002
 21
17.09015000000001
 31
0.0
  0
LINE
  5
215
330
1F
100
AcDbEntity
  8
0
  6
Continuous
 62
     7
 48
25.39999961853027
370
     0
100
AcDbLine
 10
1.014000000000002
 20
17.21415
 30
0.0
 11
0.7640000000000025
 21
17.21415
 31
0.0
  0
LINE
  5
216
330
1F
100
AcDbEntity
  8
0
  6
Continuous
 62
     7
 48
25.39999961853027
370
     0
100
AcDbLine
 10
1.014000000000002
 20
17.09015000000001
 30
0.0
 11
1.014000000000002
 21
17.21415
 31
0.0
  0
CIRCLE
  5
217
330
1F
100
AcDbEntity
  8
0
  6
Continuous
 62
     7
 48
25.39999961853027
370
     0
100
AcDbCircle
 10
0.8909999999999978
 20
16.90414999999999
 30
0.0
 40
0.0629999999999993
  0
CIRCLE
  5
218
330
1F
100
AcDbEntity
  8
0
  6
Continuous
 62
     7
 48
25.39999961853027
370
     0
100
AcDbCircle
 10
4.157999999999998
 20
15.11165
 30
0.0
 40
0.0629999999999993
  0
CIRCLE
  5
219
330
1F
100
AcDbEntity
  8
0
  6
Continuous
 62
     7
 48
25.39999961853027
370
     0
100
AcDbCircle
 10
4.157999999999998
 20
16.01115000000001
 30
0.0
 40
0.0629999999999993
  0
LINE
  5
21A
330
1F
100
AcDbEntity
  8
0
  6
Continuous
 62
     7
 48
25.39999961853027
370
     0
100
AcDbLine
 10
0.7640000000000025
 20
17.09015000000001
 30
0.0
 11
0.7640000000000025
 21
17.21415
 31
0.0
  0
LINE
  5
21B
330
1F
100
AcDbEntity
  8
0
  6
Continuous
 62
     7
 48
25.39999961853027
370
     0
100
AcDbLine
 10
4.034000000000002
 20
17.09015000000001
 30
0.0
 11
4.284000000000002
 21
17.09015000000001
 31
0.0
  0
LINE
  5
21C
330
1F
100
AcDbEntity
  8
0
  6
Continuous
 62
     7
 48
25.39999961853027
370
     0
100
AcDbLine
 10
4.284000000000002
 20
17.21415
 30
0.0
 11
4.034000000000002
 21
17.21415
 31
0.0
  0
LINE
  5
21D
330
1F
100
AcDbEntity
  8
0
  6
Continuous
 62
     7
 48
25.39999961853027
370
     0
100
AcDbLine
 10
4.284000000000002
 20
17.09015000000001
 30
0.0
 11
4.284000000000002
 21
17.21415
 31
0.0
  0
LINE
  5
21E
330
1F
100
AcDbEntity
  8
0
  6
Continuous
 62
     7
 48
25.39999961853027
370
     0
100
AcDbLine
 10
4.034000000000002
 20
17.09015000000001
 30
0.0
 11
4.034000000000002
 21
17.21415
 31
0.0
  0
LINE
  5
21F
330
1F
100
AcDbEntity
  8
0
  6
Continuous
 62
     7
 48
25.39999961853027
370
     0
100
AcDbLine
 10
0.7640000000000025
 20
14.78615
 30
0.0
 11
1.014000000000002
 21
14.78615
 31
0.0
  0
LINE
  5
220
330
1F
100
AcDbEntity
  8
0
  6
Continuous
 62
     7
 48
25.39999961853027
370
     0
100
AcDbLine
 10
1.014000000000002
 20
14.91015
 30
0.0
 11
0.7640000000000025
 21
14.91015
 31
0.0
  0
LINE
  5
221
330
1F
100
AcDbEntity
  8
0
  6
Continuous
 62
     7
 48
25.39999961853027
370
     0
100
AcDbLine
 10
1.014000000000002
 20
14.78615
 30
0.0
 11
1.014000000000002
 21
14.91015
 31
0.0
  0
LINE
  5
222
330
1F
100
AcDbEntity
  8
0
  6
Continuous
 62
     7
 48
25.39999961853027
370
     0
100
AcDbLine
 10
0.7640000000000025
 20
14.91015
 30
0.0
 11
0.7640000000000025
 21
14.78615
 31
0.0
  0
LINE
  5
223
330
1F
100
AcDbEntity
  8
0
  6
Continuous
 62
     7
 48
25.39999961853027
370
     0
100
AcDbLine
 10
4.034000000000002
 20
14.78615
 30
0.0
 11
4.284000000000002
 21
14.78615
 31
0.0
  0
LINE
  5
224
330
1F
100
AcDbEntity
  8
0
  6
Continuous
 62
     7
 48
25.39999961853027
370
     0
100
AcDbLine
 10
4.284000000000002
 20
14.91015
 30
0.0
 11
4.034000000000002
 21
14.91015
 31
0.0
  0
LINE
  5
225
330
1F
100
AcDbEntity
  8
0
  6
Continuous
 62
     7
 48
25.39999961853027
370
     0
100
AcDbLine
 10
4.284000000000002
 20
14.78615
 30
0.0
 11
4.284000000000002
 21
14.91015
 31
0.0
  0
LINE
  5
226
330
1F
100
AcDbEntity
  8
0
  6
Continuous
 62
     7
 48
25.39999961853027
370
     0
100
AcDbLine
 10
4.034000000000002
 20
14.91015
 30
0.0
 11
4.034000000000002
 21
14.78615
 31
0.0
  0
ARC
  5
227
330
1F
100
AcDbEntity
  8
0
  6
Continuous
 62
     7
 48
25.39999961853027
370
     0
100
AcDbCircle
 10
-1.242555970149229
 20
16.00015000000001
 30
0.0
 40
5.906555970149233
100
AcDbArc
 50
347.7722271761785
 51
12.22777282382131
  0
ARC
  5
228
330
1F
100
AcDbEntity
  8
0
  6
Continuous
 62
     7
 48
25.39999961853027
370
     0
100
AcDbCircle
 10
4.4444566784167
 20
17.2402637333501
 30
0.0
 40
0.0862332341332327
100
AcDbArc
 50
7.252492535362492
 51
82.97714956007411
  0
ARC
  5
229
330
1F
100
AcDbEntity
  8
0
  6
Continuous
 62
     7
 48
25.39999961853027
370
     0
100
AcDbCircle
 10
4.434249399848329
 20
14.76990060015167
 30
0.0
 40
0.0979732863389844
100
AcDbArc
 50
282.2277728238202
 51
347.7722271761819
  0
ARC
  5
22A
330
1F
100
AcDbEntity
  8
0
  6
Continuous
 62
     7
 48
25.39999961853027
370
     0
100
AcDbCircle
 10
6.280555970149227
 20
16.00015
 30
0.0
 40
5.906555970149231
100
AcDbArc
 50
167.7722271761787
 51
192.2277728238213
  0
ARC
  5
22B
330
1F
100
AcDbEntity
  8
0
  6
Continuous
 62
     7
 48
25.39999961853027
370
     0
100
AcDbCircle
 10
0.5935433215833119
 20
17.24026373335009
 30
0.0
 40
0.0862332341332479
100
AcDbArc
 50
97.0228504399265
 51
172.7475074646246
  0
ARC
  5
22C
330
1F
100
AcDbEntity
  8
0
  6
Continuous
 62
     7
 48
25.39999961853027
370
     0
100
AcDbCircle
 10
0.6037506001516548
 20
14.76990060015167
 30
0.0
 40
0.097973286338968
100
AcDbArc
 50
192.2277728238159
 51
257.7722271761874
  0
POLYLINE
  5
22D
330
1F
100
AcDbEntity
  8
0
  6
Continuous
 62
     7
 48
25.39999961853027
370
     0
100
AcDb2dPolyline
 66
     1
 10
0.0
 20
0.0
 30
0.0
 70
   132
 75
     6
  0
VERTEX
  5
22E
330
22D
100
AcDbEntity
  8
0
  6
Continuous
 62
     7
 48
25.39999961853027
100
AcDbVertex
100
AcDb2dVertex
 10
4.455000000000008
 20
17.32585000000001
 30
0.0
 70
    16
  0
VERTEX
  5
22F
330
22D
100
AcDbEntity
  8
0
  6
Continuous
 62
     7
 48
25.39999961853027
100
AcDbVertex
100
AcDb2dVertex
 10
4.19488770793402
 20
17.36545716801097
 30
0.0
 70
    16
  0
VERTEX
  5
230
330
22D
100
AcDbEntity
  8
0
  6
Continuous
 62
     7
 48
25.39999961853027
100
AcDbVertex
100
AcDb2dVertex
 10
3.739818290373795
 20
17.43475035955834
 30
0.0
 70
    16
  0
VERTEX
  5
231
330
22D
100
AcDbEntity
  8
0
  6
Continuous
 62
     7
 48
25.39999961853027
100
AcDbVertex
100
AcDb2dVertex
 10
3.092905255386365
 20
17.41413098063824
 30
0.0
 70
    16
  0
VERTEX
  5
232
330
22D
100
AcDbEntity
  8
0
  6
Continuous
 62
     7
 48
25.39999961853027
100
AcDbVertex
100
AcDb2dVertex
 10
2.521222941269355
 20
17.3410387148376
 30
0.0
 70
    16
  0
VERTEX
  5
233
330
22D
100
AcDbEntity
  8
0
  6
Continuous
 62
     7
 48
25.39999961853027
100
AcDbVertex
100
AcDb2dVertex
 10
1.899889721454556
 20
17.42031590290324
 30
0.0
 70
    16
  0
VERTEX
  5
234
330
22D
100
AcDbEntity
  8
0
  6
Continuous
 62
     7
 48
25.39999961853027
100
AcDbVertex
100
AcDb2dVertex
 10
1.247415252376616
 20
17.43216619699559
 30
0.0
 70
    16
  0
VERTEX
  5
235
330
22D
100
AcDbEntity
  8
0
  6
Continuous
 62
     7
 48
25.39999961853027
100
AcDbVertex
100
AcDb2dVertex
 10
0.7932655661185168
 20
17.35949557822488
 30
0.0
 70
    16
  0
VERTEX
  5
236
330
22D
100
AcDbEntity
  8
0
  6
Continuous
 62
     7
 48
25.39999961853027
100
AcDbVertex
100
AcDb2dVertex
 10
0.5830000000034912
 20
17.3258499999979
 30
0.0
 70
    16
  0
VERTEX
  5
237
330
22D
100
AcDbEntity
  8
0
  6
Continuous
 62
     7
 48
25.39999961853027
100
AcDbVertex
100
AcDb2dVertex
 10
4.455000000000008
 20
17.32585000000001
 30
0.0
 70
     8
  0
VERTEX
  5
238
330
22D
100
AcDbEntity
  8
0
  6
Continuous
 62
     7
 48
25.39999961853027
100
AcDbVertex
100
AcDb2dVertex
 10
4.358932954793233
 20
17.34043930319455
 30
0.0
 70
     8
  0
VERTEX
  5
239
330
22D
100
AcDbEntity
  8
0
  6
Continuous
 62
     7
 48
25.39999961853027
100
AcDbVertex
100
AcDb2dVertex
 10
4.265607998628176
 20
17.35437840482619
 30
0.0
 70
     8
  0
VERTEX
  5
23A
330
22D
100
AcDbEntity
  8
0
  6
Continuous
 62
     7
 48
25.39999961853027
100
AcDbVertex
100
AcDb2dVertex
 10
4.174713072113503
 20
17.36748215697927
 30
0.0
 70
     8
  0
VERTEX
  5
23B
330
22D
100
AcDbEntity
  8
0
  6
Continuous
 62
     7
 48
25.39999961853027
100
AcDbVertex
100
AcDb2dVertex
 10
4.085936115857884
 20
17.37956541173813
 30
0.0
 70
     8
  0
VERTEX
  5
23C
330
22D
100
AcDbEntity
  8
0
  6
Continuous
 62
     7
 48
25.39999961853027
100
AcDbVertex
100
AcDb2dVertex
 10
3.998965070469984
 20
17.3904430211871
 30
0.0
 70
     8
  0
VERTEX
  5
23D
330
22D
100
AcDbEntity
  8
0
  6
Continuous
 62
     7
 48
25.39999961853027
100
AcDbVertex
100
AcDb2dVertex
 10
3.913487876558472
 20
17.39992983741054
 30
0.0
 70
     8
  0
VERTEX
  5
23E
330
22D
100
AcDbEntity
  8
0
  6
Continuous
 62
     7
 48
25.39999961853027
100
AcDbVertex
100
AcDb2dVertex
 10
3.829192474732015
 20
17.40784071249277
 30
0.0
 70
     8
  0
VERTEX
  5
23F
330
22D
100
AcDbEntity
  8
0
  6
Continuous
 62
     7
 48
25.39999961853027
100
AcDbVertex
100
AcDb2dVertex
 10
3.745766805599279
 20
17.41399049851815
 30
0.0
 70
     8
  0
VERTEX
  5
240
330
22D
100
AcDbEntity
  8
0
  6
Continuous
 62
     7
 48
25.39999961853027
100
AcDbVertex
100
AcDb2dVertex
 10
3.662963690640639
 20
17.41824837114268
 30
0.0
 70
     8
  0
VERTEX
  5
241
330
22D
100
AcDbEntity
  8
0
  6
Continuous
 62
     7
 48
25.39999961853027
100
AcDbVertex
100
AcDb2dVertex
 10
3.580795474823289
 20
17.42070080030906
 30
0.0
 70
     8
  0
VERTEX
  5
242
330
22D
100
AcDbEntity
  8
0
  6
Continuous
 62
     7
 48
25.39999961853027
100
AcDbVertex
100
AcDb2dVertex
 10
3.499339383986131
 20
17.42148857953169
 30
0.0
 70
     8
  0
VERTEX
  5
243
330
22D
100
AcDbEntity
  8
0
  6
Continuous
 62
     7
 48
25.39999961853027
100
AcDbVertex
100
AcDb2dVertex
 10
3.418672643968066
 20
17.42075250232492
 30
0.0
 70
     8
  0
VERTEX
  5
244
330
22D
100
AcDbEntity
  8
0
  6
Continuous
 62
     7
 48
25.39999961853027
100
AcDbVertex
100
AcDb2dVertex
 10
3.338872480607996
 20
17.41863336220314
 30
0.0
 70
     8
  0
VERTEX
  5
245
330
22D
100
AcDbEntity
  8
0
  6
Continuous
 62
     7
 48
25.39999961853027
100
AcDbVertex
100
AcDb2dVertex
 10
3.260016119744822
 20
17.41527195268072
 30
0.0
 70
     8
  0
VERTEX
  5
246
330
22D
100
AcDbEntity
  8
0
  6
Continuous
 62
     7
 48
25.39999961853027
100
AcDbVertex
100
AcDb2dVertex
 10
3.182180787217446
 20
17.41080906727204
 30
0.0
 70
     8
  0
VERTEX
  5
247
330
22D
100
AcDbEntity
  8
0
  6
Continuous
 62
     7
 48
25.39999961853027
100
AcDbVertex
100
AcDb2dVertex
 10
3.105443708864769
 20
17.40538549949148
 30
0.0
 70
     8
  0
VERTEX
  5
248
330
22D
100
AcDbEntity
  8
0
  6
Continuous
 62
     7
 48
25.39999961853027
100
AcDbVertex
100
AcDb2dVertex
 10
3.029828587981393
 20
17.39918525771715
 30
0.0
 70
     8
  0
VERTEX
  5
249
330
22D
100
AcDbEntity
  8
0
  6
Continuous
 62
     7
 48
25.39999961853027
100
AcDbVertex
100
AcDb2dVertex
 10
2.955145037684726
 20
17.39256520978207
 30
0.0
 70
     8
  0
VERTEX
  5
24A
330
22D
100
AcDbEntity
  8
0
  6
Continuous
 62
     7
 48
25.39999961853027
100
AcDbVertex
100
AcDb2dVertex
 10
2.881149148547878
 20
17.38592543838303
 30
0.0
 70
     8
  0
VERTEX
  5
24B
330
22D
100
AcDbEntity
  8
0
  6
Continuous
 62
     7
 48
25.39999961853027
100
AcDbVertex
100
AcDb2dVertex
 10
2.807597011143956
 20
17.37966602621679
 30
0.0
 70
     8
  0
VERTEX
  5
24C
330
22D
100
AcDbEntity
  8
0
  6
Continuous
 62
     7
 48
25.39999961853027
100
AcDbVertex
100
AcDb2dVertex
 10
2.734244716046072
 20
17.37418705598013
 30
0.0
 70
     8
  0
VERTEX
  5
24D
330
22D
100
AcDbEntity
  8
0
  6
Continuous
 62
     7
 48
25.39999961853027
100
AcDbVertex
100
AcDb2dVertex
 10
2.660848353827332
 20
17.36988861036981
 30
0.0
 70
     8
  0
VERTEX
  5
24E
330
22D
100
AcDbEntity
  8
0
  6
Continuous
 62
     7
 48
25.39999961853027
100
AcDbVertex
100
AcDb2dVertex
 10
2.587164015060846
 20
17.36717077208262
 30
0.0
 70
     8
  0
VERTEX
  5
24F
330
22D
100
AcDbEntity
  8
0
  6
Continuous
 62
     7
 48
25.39999961853027
100
AcDbVertex
100
AcDb2dVertex
 10
2.512947790319724
 20
17.36643362381531
 30
0.0
 70
     8
  0
VERTEX
  5
250
330
22D
100
AcDbEntity
  8
0
  6
Continuous
 62
     7
 48
25.39999961853027
100
AcDbVertex
100
AcDb2dVertex
 10
2.438002447027009
 20
17.36793901952489
 30
0.0
 70
     8
  0
VERTEX
  5
251
330
22D
100
AcDbEntity
  8
0
  6
Continuous
 62
     7
 48
25.39999961853027
100
AcDbVertex
100
AcDb2dVertex
 10
2.36231746000549
 20
17.37139589820926
 30
0.0
 70
     8
  0
VERTEX
  5
252
330
22D
100
AcDbEntity
  8
0
  6
Continuous
 62
     7
 48
25.39999961853027
100
AcDbVertex
100
AcDb2dVertex
 10
2.285928980927892
 20
17.37637497012654
 30
0.0
 70
     8
  0
VERTEX
  5
253
330
22D
100
AcDbEntity
  8
0
  6
Continuous
 62
     7
 48
25.39999961853027
100
AcDbVertex
100
AcDb2dVertex
 10
2.208873161466936
 20
17.38244694553486
 30
0.0
 70
     8
  0
VERTEX
  5
254
330
22D
100
AcDbEntity
  8
0
  6
Continuous
 62
     7
 48
25.39999961853027
100
AcDbVertex
100
AcDb2dVertex
 10
2.131186153295349
 20
17.38918253469234
 30
0.0
 70
     8
  0
VERTEX
  5
255
330
22D
100
AcDbEntity
  8
0
  6
Continuous
 62
     7
 48
25.39999961853027
100
AcDbVertex
100
AcDb2dVertex
 10
2.052904108085853
 20
17.39615244785711
 30
0.0
 70
     8
  0
VERTEX
  5
256
330
22D
100
AcDbEntity
  8
0
  6
Continuous
 62
     7
 48
25.39999961853027
100
AcDbVertex
100
AcDb2dVertex
 10
1.974063177511174
 20
17.4029273952873
 30
0.0
 70
     8
  0
VERTEX
  5
257
330
22D
100
AcDbEntity
  8
0
  6
Continuous
 62
     7
 48
25.39999961853027
100
AcDbVertex
100
AcDb2dVertex
 10
1.894699513244033
 20
17.40907808724103
 30
0.0
 70
     8
  0
VERTEX
  5
258
330
22D
100
AcDbEntity
  8
0
  6
Continuous
 62
     7
 48
25.39999961853027
100
AcDbVertex
100
AcDb2dVertex
 10
1.81484402006019
 20
17.41422938990727
 30
0.0
 70
     8
  0
VERTEX
  5
259
330
22D
100
AcDbEntity
  8
0
  6
Continuous
 62
     7
 48
25.39999961853027
100
AcDbVertex
100
AcDb2dVertex
 10
1.734506615147535
 20
17.41822279319839
 30
0.0
 70
     8
  0
VERTEX
  5
25A
330
22D
100
AcDbEntity
  8
0
  6
Continuous
 62
     7
 48
25.39999961853027
100
AcDbVertex
100
AcDb2dVertex
 10
1.653691968796995
 20
17.42095394295761
 30
0.0
 70
     8
  0
VERTEX
  5
25B
330
22D
100
AcDbEntity
  8
0
  6
Continuous
 62
     7
 48
25.39999961853027
100
AcDbVertex
100
AcDb2dVertex
 10
1.572404751299496
 20
17.42231848502813
 30
0.0
 70
     8
  0
VERTEX
  5
25C
330
22D
100
AcDbEntity
  8
0
  6
Continuous
 62
     7
 48
25.39999961853027
100
AcDbVertex
100
AcDb2dVertex
 10
1.490649632945962
 20
17.42221206525317
 30
0.0
 70
     8
  0
VERTEX
  5
25D
330
22D
100
AcDbEntity
  8
0
  6
Continuous
 62
     7
 48
25.39999961853027
100
AcDbVertex
100
AcDb2dVertex
 10
1.40843128402732
 20
17.42053032947594
 30
0.0
 70
     8
  0
VERTEX
  5
25E
330
22D
100
AcDbEntity
  8
0
  6
Continuous
 62
     7
 48
25.39999961853027
100
AcDbVertex
100
AcDb2dVertex
 10
1.325754374834496
 20
17.41716892353966
 30
0.0
 70
     8
  0
VERTEX
  5
25F
330
22D
100
AcDbEntity
  8
0
  6
Continuous
 62
     7
 48
25.39999961853027
100
AcDbVertex
100
AcDb2dVertex
 10
1.242623575658415
 20
17.41202349328752
 30
0.0
 70
     8
  0
VERTEX
  5
260
330
22D
100
AcDbEntity
  8
0
  6
Continuous
 62
     7
 48
25.39999961853027
100
AcDbVertex
100
AcDb2dVertex
 10
1.159084967770939
 20
17.40505167152158
 30
0.0
 70
     8
  0
VERTEX
  5
261
330
22D
100
AcDbEntity
  8
0
  6
Continuous
 62
     7
 48
25.39999961853027
100
AcDbVertex
100
AcDb2dVertex
 10
1.075350276367682
 20
17.39645903887908
 30
0.0
 70
     8
  0
VERTEX
  5
262
330
22D
100
AcDbEntity
  8
0
  6
Continuous
 62
     7
 48
25.39999961853027
100
AcDbVertex
100
AcDb2dVertex
 10
0.991672637625192
 20
17.38651316295615
 30
0.0
 70
     8
  0
VERTEX
  5
263
330
22D
100
AcDbEntity
  8
0
  6
Continuous
 62
     7
 48
25.39999961853027
100
AcDbVertex
100
AcDb2dVertex
 10
0.9083051877200193
 20
17.37548161134885
 30
0.0
 70
     8
  0
VERTEX
  5
264
330
22D
100
AcDbEntity
  8
0
  6
Continuous
 62
     7
 48
25.39999961853027
100
AcDbVertex
100
AcDb2dVertex
 10
0.8255010628287135
 20
17.36363195165329
 30
0.0
 70
     8
  0
VERTEX
  5
265
330
22D
100
AcDbEntity
  8
0
  6
Continuous
 62
     7
 48
25.39999961853027
100
AcDbVertex
100
AcDb2dVertex
 10
0.7435133991278238
 20
17.35123175146554
 30
0.0
 70
     8
  0
VERTEX
  5
266
330
22D
100
AcDbEntity
  8
0
  6
Continuous
 62
     7
 48
25.39999961853027
100
AcDbVertex
100
AcDb2dVertex
 10
0.6625953327938999
 20
17.33854857838172
 30
0.0
 70
     8
  0
VERTEX
  5
267
330
22D
100
AcDbEntity
  8
0
  6
Continuous
 62
     7
 48
25.39999961853027
100
AcDbVertex
100
AcDb2dVertex
 10
0.5830000000034911
 20
17.3258499999979
 30
0.0
 70
     8
  0
SEQEND
  5
268
330
22D
100
AcDbEntity
  8
0
  6
Continuous
 62
     7
 48
25.39999961853027
370
     0
  0
POLYLINE
  5
269
330
1F
100
AcDbEntity
  8
0
  6
Continuous
 62
     7
 48
25.39999961853027
370
     0
100
AcDb2dPolyline
 66
     1
 10
0.0
 20
0.0
 30
0.0
 70
   132
 75
     6
  0
VERTEX
  5
26A
330
269
100
AcDbEntity
  8
0
  6
Continuous
 62
     7
 48
25.39999961853027
100
AcDbVertex
100
AcDb2dVertex
 10
4.455000000000005
 20
14.67415
 30
0.0
 70
    16
  0
VERTEX
  5
26B
330
269
100
AcDbEntity
  8
0
  6
Continuous
 62
     7
 48
25.39999961853027
100
AcDbVertex
100
AcDb2dVertex
 10
4.194887707934018
 20
14.63454283198905
 30
0.0
 70
    16
  0
VERTEX
  5
26C
330
269
100
AcDbEntity
  8
0
  6
Continuous
 62
     7
 48
25.39999961853027
100
AcDbVertex
100
AcDb2dVertex
 10
3.739818290373791
 20
14.56524964044168
 30
0.0
 70
    16
  0
VERTEX
  5
26D
330
269
100
AcDbEntity
  8
0
  6
Continuous
 62
     7
 48
25.39999961853027
100
AcDbVertex
100
AcDb2dVertex
 10
3.092905255386362
 20
14.58586901936175
 30
0.0
 70
    16
  0
VERTEX
  5
26E
330
269
100
AcDbEntity
  8
0
  6
Continuous
 62
     7
 48
25.39999961853027
100
AcDbVertex
100
AcDb2dVertex
 10
2.52122294126935
 20
14.65896128516242
 30
0.0
 70
    16
  0
VERTEX
  5
26F
330
269
100
AcDbEntity
  8
0
  6
Continuous
 62
     7
 48
25.39999961853027
100
AcDbVertex
100
AcDb2dVertex
 10
1.899889721454552
 20
14.57968409709677
 30
0.0
 70
    16
  0
VERTEX
  5
270
330
269
100
AcDbEntity
  8
0
  6
Continuous
 62
     7
 48
25.39999961853027
100
AcDbVertex
100
AcDb2dVertex
 10
1.24741525237661
 20
14.5678338030044
 30
0.0
 70
    16
  0
VERTEX
  5
271
330
269
100
AcDbEntity
  8
0
  6
Continuous
 62
     7
 48
25.39999961853027
100
AcDbVertex
100
AcDb2dVertex
 10
0.7932655661185128
 20
14.64050442177512
 30
0.0
 70
    16
  0
VERTEX
  5
272
330
269
100
AcDbEntity
  8
0
  6
Continuous
 62
     7
 48
25.39999961853027
100
AcDbVertex
100
AcDb2dVertex
 10
0.5830000000034876
 20
14.67415000000211
 30
0.0
 70
    16
  0
VERTEX
  5
273
330
269
100
AcDbEntity
  8
0
  6
Continuous
 62
     7
 48
25.39999961853027
100
AcDbVertex
100
AcDb2dVertex
 10
4.455000000000005
 20
14.67415
 30
0.0
 70
     8
  0
VERTEX
  5
274
330
269
100
AcDbEntity
  8
0
  6
Continuous
 62
     7
 48
25.39999961853027
100
AcDbVertex
100
AcDb2dVertex
 10
4.358932954793231
 20
14.65956069680546
 30
0.0
 70
     8
  0
VERTEX
  5
275
330
269
100
AcDbEntity
  8
0
  6
Continuous
 62
     7
 48
25.39999961853027
100
AcDbVertex
100
AcDb2dVertex
 10
4.265607998628172
 20
14.64562159517382
 30
0.0
 70
     8
  0
VERTEX
  5
276
330
269
100
AcDbEntity
  8
0
  6
Continuous
 62
     7
 48
25.39999961853027
100
AcDbVertex
100
AcDb2dVertex
 10
4.1747130721135
 20
14.63251784302074
 30
0.0
 70
     8
  0
VERTEX
  5
277
330
269
100
AcDbEntity
  8
0
  6
Continuous
 62
     7
 48
25.39999961853027
100
AcDbVertex
100
AcDb2dVertex
 10
4.085936115857882
 20
14.62043458826188
 30
0.0
 70
     8
  0
VERTEX
  5
278
330
269
100
AcDbEntity
  8
0
  6
Continuous
 62
     7
 48
25.39999961853027
100
AcDbVertex
100
AcDb2dVertex
 10
3.998965070469982
 20
14.60955697881291
 30
0.0
 70
     8
  0
VERTEX
  5
279
330
269
100
AcDbEntity
  8
0
  6
Continuous
 62
     7
 48
25.39999961853027
100
AcDbVertex
100
AcDb2dVertex
 10
3.91348787655847
 20
14.60007016258947
 30
0.0
 70
     8
  0
VERTEX
  5
27A
330
269
100
AcDbEntity
  8
0
  6
Continuous
 62
     7
 48
25.39999961853027
100
AcDbVertex
100
AcDb2dVertex
 10
3.829192474732012
 20
14.59215928750724
 30
0.0
 70
     8
  0
VERTEX
  5
27B
330
269
100
AcDbEntity
  8
0
  6
Continuous
 62
     7
 48
25.39999961853027
100
AcDbVertex
100
AcDb2dVertex
 10
3.745766805599277
 20
14.58600950148186
 30
0.0
 70
     8
  0
VERTEX
  5
27C
330
269
100
AcDbEntity
  8
0
  6
Continuous
 62
     7
 48
25.39999961853027
100
AcDbVertex
100
AcDb2dVertex
 10
3.662963690640636
 20
14.58175162885733
 30
0.0
 70
     8
  0
VERTEX
  5
27D
330
269
100
AcDbEntity
  8
0
  6
Continuous
 62
     7
 48
25.39999961853027
100
AcDbVertex
100
AcDb2dVertex
 10
3.580795474823286
 20
14.57929919969094
 30
0.0
 70
     8
  0
VERTEX
  5
27E
330
269
100
AcDbEntity
  8
0
  6
Continuous
 62
     7
 48
25.39999961853027
100
AcDbVertex
100
AcDb2dVertex
 10
3.499339383986127
 20
14.57851142046832
 30
0.0
 70
     8
  0
VERTEX
  5
27F
330
269
100
AcDbEntity
  8
0
  6
Continuous
 62
     7
 48
25.39999961853027
100
AcDbVertex
100
AcDb2dVertex
 10
3.418672643968063
 20
14.57924749767508
 30
0.0
 70
     8
  0
VERTEX
  5
280
330
269
100
AcDbEntity
  8
0
  6
Continuous
 62
     7
 48
25.39999961853027
100
AcDbVertex
100
AcDb2dVertex
 10
3.338872480607993
 20
14.58136663779686
 30
0.0
 70
     8
  0
VERTEX
  5
281
330
269
100
AcDbEntity
  8
0
  6
Continuous
 62
     7
 48
25.39999961853027
100
AcDbVertex
100
AcDb2dVertex
 10
3.26001611974482
 20
14.58472804731928
 30
0.0
 70
     8
  0
VERTEX
  5
282
330
269
100
AcDbEntity
  8
0
  6
Continuous
 62
     7
 48
25.39999961853027
100
AcDbVertex
100
AcDb2dVertex
 10
3.182180787217443
 20
14.58919093272795
 30
0.0
 70
     8
  0
VERTEX
  5
283
330
269
100
AcDbEntity
  8
0
  6
Continuous
 62
     7
 48
25.39999961853027
100
AcDbVertex
100
AcDb2dVertex
 10
3.105443708864766
 20
14.59461450050851
 30
0.0
 70
     8
  0
VERTEX
  5
284
330
269
100
AcDbEntity
  8
0
  6
Continuous
 62
     7
 48
25.39999961853027
100
AcDbVertex
100
AcDb2dVertex
 10
3.02982858798139
 20
14.60081474228285
 30
0.0
 70
     8
  0
VERTEX
  5
285
330
269
100
AcDbEntity
  8
0
  6
Continuous
 62
     7
 48
25.39999961853027
100
AcDbVertex
100
AcDb2dVertex
 10
2.955145037684723
 20
14.60743479021793
 30
0.0
 70
     8
  0
VERTEX
  5
286
330
269
100
AcDbEntity
  8
0
  6
Continuous
 62
     7
 48
25.39999961853027
100
AcDbVertex
100
AcDb2dVertex
 10
2.881149148547874
 20
14.61407456161698
 30
0.0
 70
     8
  0
VERTEX
  5
287
330
269
100
AcDbEntity
  8
0
  6
Continuous
 62
     7
 48
25.39999961853027
100
AcDbVertex
100
AcDb2dVertex
 10
2.807597011143953
 20
14.62033397378321
 30
0.0
 70
     8
  0
VERTEX
  5
288
330
269
100
AcDbEntity
  8
0
  6
Continuous
 62
     7
 48
25.39999961853027
100
AcDbVertex
100
AcDb2dVertex
 10
2.734244716046068
 20
14.62581294401988
 30
0.0
 70
     8
  0
VERTEX
  5
289
330
269
100
AcDbEntity
  8
0
  6
Continuous
 62
     7
 48
25.39999961853027
100
AcDbVertex
100
AcDb2dVertex
 10
2.660848353827328
 20
14.63011138963019
 30
0.0
 70
     8
  0
VERTEX
  5
28A
330
269
100
AcDbEntity
  8
0
  6
Continuous
 62
     7
 48
25.39999961853027
100
AcDbVertex
100
AcDb2dVertex
 10
2.587164015060843
 20
14.63282922791739
 30
0.0
 70
     8
  0
VERTEX
  5
28B
330
269
100
AcDbEntity
  8
0
  6
Continuous
 62
     7
 48
25.39999961853027
100
AcDbVertex
100
AcDb2dVertex
 10
2.512947790319719
 20
14.6335663761847
 30
0.0
 70
     8
  0
VERTEX
  5
28C
330
269
100
AcDbEntity
  8
0
  6
Continuous
 62
     7
 48
25.39999961853027
100
AcDbVertex
100
AcDb2dVertex
 10
2.438002447027005
 20
14.63206098047512
 30
0.0
 70
     8
  0
VERTEX
  5
28D
330
269
100
AcDbEntity
  8
0
  6
Continuous
 62
     7
 48
25.39999961853027
100
AcDbVertex
100
AcDb2dVertex
 10
2.362317460005486
 20
14.62860410179075
 30
0.0
 70
     8
  0
VERTEX
  5
28E
330
269
100
AcDbEntity
  8
0
  6
Continuous
 62
     7
 48
25.39999961853027
100
AcDbVertex
100
AcDb2dVertex
 10
2.285928980927887
 20
14.62362502987347
 30
0.0
 70
     8
  0
VERTEX
  5
28F
330
269
100
AcDbEntity
  8
0
  6
Continuous
 62
     7
 48
25.39999961853027
100
AcDbVertex
100
AcDb2dVertex
 10
2.208873161466932
 20
14.61755305446516
 30
0.0
 70
     8
  0
VERTEX
  5
290
330
269
100
AcDbEntity
  8
0
  6
Continuous
 62
     7
 48
25.39999961853027
100
AcDbVertex
100
AcDb2dVertex
 10
2.131186153295345
 20
14.61081746530767
 30
0.0
 70
     8
  0
VERTEX
  5
291
330
269
100
AcDbEntity
  8
0
  6
Continuous
 62
     7
 48
25.39999961853027
100
AcDbVertex
100
AcDb2dVertex
 10
2.05290410808585
 20
14.6038475521429
 30
0.0
 70
     8
  0
VERTEX
  5
292
330
269
100
AcDbEntity
  8
0
  6
Continuous
 62
     7
 48
25.39999961853027
100
AcDbVertex
100
AcDb2dVertex
 10
1.97406317751117
 20
14.59707260471271
 30
0.0
 70
     8
  0
VERTEX
  5
293
330
269
100
AcDbEntity
  8
0
  6
Continuous
 62
     7
 48
25.39999961853027
100
AcDbVertex
100
AcDb2dVertex
 10
1.894699513244029
 20
14.59092191275898
 30
0.0
 70
     8
  0
VERTEX
  5
294
330
269
100
AcDbEntity
  8
0
  6
Continuous
 62
     7
 48
25.39999961853027
100
AcDbVertex
100
AcDb2dVertex
 10
1.814844020060185
 20
14.58577061009274
 30
0.0
 70
     8
  0
VERTEX
  5
295
330
269
100
AcDbEntity
  8
0
  6
Continuous
 62
     7
 48
25.39999961853027
100
AcDbVertex
100
AcDb2dVertex
 10
1.73450661514753
 20
14.58177720680161
 30
0.0
 70
     8
  0
VERTEX
  5
296
330
269
100
AcDbEntity
  8
0
  6
Continuous
 62
     7
 48
25.39999961853027
100
AcDbVertex
100
AcDb2dVertex
 10
1.65369196879699
 20
14.5790460570424
 30
0.0
 70
     8
  0
VERTEX
  5
297
330
269
100
AcDbEntity
  8
0
  6
Continuous
 62
     7
 48
25.39999961853027
100
AcDbVertex
100
AcDb2dVertex
 10
1.572404751299491
 20
14.57768151497187
 30
0.0
 70
     8
  0
VERTEX
  5
298
330
269
100
AcDbEntity
  8
0
  6
Continuous
 62
     7
 48
25.39999961853027
100
AcDbVertex
100
AcDb2dVertex
 10
1.490649632945958
 20
14.57778793474683
 30
0.0
 70
     8
  0
VERTEX
  5
299
330
269
100
AcDbEntity
  8
0
  6
Continuous
 62
     7
 48
25.39999961853027
100
AcDbVertex
100
AcDb2dVertex
 10
1.408431284027316
 20
14.57946967052406
 30
0.0
 70
     8
  0
VERTEX
  5
29A
330
269
100
AcDbEntity
  8
0
  6
Continuous
 62
     7
 48
25.39999961853027
100
AcDbVertex
100
AcDb2dVertex
 10
1.325754374834491
 20
14.58283107646035
 30
0.0
 70
     8
  0
VERTEX
  5
29B
330
269
100
AcDbEntity
  8
0
  6
Continuous
 62
     7
 48
25.39999961853027
100
AcDbVertex
100
AcDb2dVertex
 10
1.24262357565841
 20
14.58797650671248
 30
0.0
 70
     8
  0
VERTEX
  5
29C
330
269
100
AcDbEntity
  8
0
  6
Continuous
 62
     7
 48
25.39999961853027
100
AcDbVertex
100
AcDb2dVertex
 10
1.159084967770934
 20
14.59494832847842
 30
0.0
 70
     8
  0
VERTEX
  5
29D
330
269
100
AcDbEntity
  8
0
  6
Continuous
 62
     7
 48
25.39999961853027
100
AcDbVertex
100
AcDb2dVertex
 10
1.075350276367677
 20
14.60354096112092
 30
0.0
 70
     8
  0
VERTEX
  5
29E
330
269
100
AcDbEntity
  8
0
  6
Continuous
 62
     7
 48
25.39999961853027
100
AcDbVertex
100
AcDb2dVertex
 10
0.9916726376251874
 20
14.61348683704385
 30
0.0
 70
     8
  0
VERTEX
  5
29F
330
269
100
AcDbEntity
  8
0
  6
Continuous
 62
     7
 48
25.39999961853027
100
AcDbVertex
100
AcDb2dVertex
 10
0.908305187720015
 20
14.62451838865115
 30
0.0
 70
     8
  0
VERTEX
  5
2A0
330
269
100
AcDbEntity
  8
0
  6
Continuous
 62
     7
 48
25.39999961853027
100
AcDbVertex
100
AcDb2dVertex
 10
0.8255010628287094
 20
14.63636804834672
 30
0.0
 70
     8
  0
VERTEX
  5
2A1
330
269
100
AcDbEntity
  8
0
  6
Continuous
 62
     7
 48
25.39999961853027
100
AcDbVertex
100
AcDb2dVertex
 10
0.7435133991278198
 20
14.64876824853446
 30
0.0
 70
     8
  0
VERTEX
  5
2A2
330
269
100
AcDbEntity
  8
0
  6
Continuous
 62
     7
 48
25.39999961853027
100
AcDbVertex
100
AcDb2dVertex
 10
0.6625953327938962
 20
14.66145142161829
 30
0.0
 70
     8
  0
VERTEX
  5
2A3
330
269
100
AcDbEntity
  8
0
  6
Continuous
 62
     7
 48
25.39999961853027
100
AcDbVertex
100
AcDb2dVertex
 10
0.5830000000034875
 20
14.67415000000211
 30
0.0
 70
     8
  0
SEQEND
  5
2A4
330
269
100
AcDbEntity
  8
0
  6
Continuous
 62
     7
 48
25.39999961853027
370
     0
  0
CIRCLE
  5
2A7
102
{ACAD_XDICTIONARY
360
2A5
102
}
330
1F
100
AcDbEntity
  8
0
  6
Continuous
 62
     7
370
     0
100
AcDbCircle
 10
2.524499999999994
 20
16.00015
 30
0.0
 40
0.0625
  0
ARC
  5
2AA
102
{ACAD_XDICTIONARY
360
2A8
102
}
330
1F
100
AcDbEntity
  8
0
  6
Continuous
 62
     7
370
     0
100
AcDbCircle
 10
1.190999999999997
 20
16.84015000000001
 30
0.0
 40
0.0500000000000004
100
AcDbArc
 50
90.0
 51
180.0
  0
LINE
  5
2AD
102
{ACAD_XDICTIONARY
360
2AB
102
}
330
1F
100
AcDbEntity
  8
0
  6
Continuous
 62
     7
370
     0
100
AcDbLine
 10
1.140999999999997
 20
16.84015000000001
 30
0.0
 11
1.140999999999997
 21
15.16015
 31
0.0
  0
ARC
  5
2B0
102
{ACAD_XDICTIONARY
360
2AE
102
}
330
1F
100
AcDbEntity
  8
0
  6
Continuous
 62
     7
370
     0
100
AcDbCircle
 10
3.857999999999997
 20
15.16015
 30
0.0
 40
0.0500000000000003
100
AcDbArc
 50
270.0
 51
0.0
  0
LINE
  5
2B3
102
{ACAD_XDICTIONARY
360
2B1
102
}
330
1F
100
AcDbEntity
  8
0
  6
Continuous
 62
     7
370
     0
100
AcDbLine
 10
3.907999999999997
 20
16.84015000000001
 30
0.0
 11
3.907999999999997
 21
15.16015
 31
0.0
  0
ARC
  5
2B6
102
{ACAD_XDICTIONARY
360
2B4
102
}
330
1F
100
AcDbEntity
  8
0
  6
Continuous
 62
     7
370
     0
100
AcDbCircle
 10
1.190999999999997
 20
15.16015
 30
0.0
 40
0.0500000000000004
100
AcDbArc
 50
180.0
 51
270.0
  0
LINE
  5
2B9
102
{ACAD_XDICTIONARY
360
2B7
102
}
330
1F
100
AcDbEntity
  8
0
  6
Continuous
 62
     7
370
     0
100
AcDbLine
 10
3.857999999999997
 20
15.11015
 30
0.0
 11
1.190999999999997
 21
15.11015
 31
0.0
  0
ARC
  5
2BC
102
{ACAD_XDICTIONARY
360
2BA
102
}
330
1F
100
AcDbEntity
  8
0
  6
Continuous
 62
     7
370
     0
100
AcDbCircle
 10
3.857999999999997
 20
16.84015000000001
 30
0.0
 40
0.0500000000000003
100
AcDbArc
 50
0.0
 51
90.0
  0
LINE
  5
2BF
102
{ACAD_XDICTIONARY
360
2BD
102
}
330
1F
100
AcDbEntity
  8
0
  6
Continuous
 62
     7
370
     0
100
AcDbLine
 10
1.190999999999997
 20
16.89015000000001
 30
0.0
 11
3.857999999999997
 21
16.89015000000001
 31
0.0
  0
VIEWPORT
  5
2C0
330
1B
100
AcDbEntity
 67
     1
  8
0
100
AcDbViewport
 10
4.14644918647515
 20
17.27510508686024
 30
0.0
 40
9.34
 41
8.532000000000009
 68
     1
 69
     1
 12
4.14644918647515
 22
17.27510508686024
 13
0.0
 23
0.0
 14
0.5
 24
0.5
 15
0.5
 25
0.5
 16
0.0
 26
0.0
 36
1.0
 17
0.0
 27
0.0
 37
0.0
 42
50.0
 43
0.0
 44
0.0
 45
8.532000000000009
 50
0.0
 51
0.0
 72
  1000
 90
    32800
  1

281
     0
 71
     1
 74
     0
110
0.0
120
0.0
130
0.0
111
1.0
121
0.0
131
0.0
112
0.0
122
1.0
132
0.0
 79
     0
146
0.0
170
     0
  0
ENDSEC
  0
SECTION
  2
OBJECTS
  0
DICTIONARY
  5
C
330
0
100
AcDbDictionary
281
     1
  3
ACAD_GROUP
350
D
  3
ACAD_LAYOUT
350
1A
  3
ACAD_MATERIAL
350
3B
  3
ACAD_MLEADERSTYLE
350
160
  3
ACAD_MLINESTYLE
350
17
  3
ACAD_PLOTSETTINGS
350
19
  3
ACAD_PLOTSTYLENAME
350
E
  3
ACAD_TABLESTYLE
350
172
  3
ACAD_VISUALSTYLE
350
2A
  3
ACDB_RECOMPOSE_DATA
350
2EE
  3
TC_CUSTOM_TABLES
350
15F
  0
DICTIONARY
  5
206
330
208
100
AcDbDictionary
280
     1
281
     1
  3
TC_EXTENDED_DATA
360
207
  0
DICTIONARY
  5
209
330
20B
100
AcDbDictionary
280
     1
281
     1
  3
TC_EXTENDED_DATA
360
20A
  0
DICTIONARY
  5
20C
330
20E
100
AcDbDictionary
280
     1
281
     1
  3
TC_EXTENDED_DATA
360
20D
  0
DICTIONARY
  5
210
330
212
100
AcDbDictionary
280
     1
281
     1
  3
TC_EXTENDED_DATA
360
211
  0
DICTIONARY
  5
2A5
330
2A7
100
AcDbDictionary
280
     1
281
     1
  3
TC_EXTENDED_DATA
360
2A6
  0
DICTIONARY
  5
2A8
330
2AA
100
AcDbDictionary
280
     1
281
     1
  3
TC_EXTENDED_DATA
360
2A9
  0
DICTIONARY
  5
2AB
330
2AD
100
AcDbDictionary
280
     1
281
     1
  3
TC_EXTENDED_DATA
360
2AC
  0
DICTIONARY
  5
2AE
330
2B0
100
AcDbDictionary
280
     1
281
     1
  3
TC_EXTENDED_DATA
360
2AF
  0
DICTIONARY
  5
2B1
330
2B3
100
AcDbDictionary
280
     1
281
     1
  3
TC_EXTENDED_DATA
360
2B2
  0
DICTIONARY
  5
2B4
330
2B6
100
AcDbDictionary
280
     1
281
     1
  3
TC_EXTENDED_DATA
360
2B5
  0
DICTIONARY
  5
2B7
330
2B9
100
AcDbDictionary
280
     1
281
     1
  3
TC_EXTENDED_DATA
360
2B8
  0
DICTIONARY
  5
2BA
330
2BC
100
AcDbDictionary
280
     1
281
     1
  3
TC_EXTENDED_DATA
360
2BB
  0
DICTIONARY
  5
2BD
330
2BF
100
AcDbDictionary
280
     1
281
     1
  3
TC_EXTENDED_DATA
360
2BE
  0
DICTIONARY
  5
D
102
{ACAD_REACTORS
330
C
102
}
330
C
100
AcDbDictionary
281
     1
  0
DICTIONARY
  5
1A
102
{ACAD_REACTORS
330
C
102
}
330
C
100
AcDbDictionary
281
     1
  3
Layout1
350
1E
  3
Layout2
350
150
  3
Model
350
22
  0
DICTIONARY
  5
3B
102
{ACAD_REACTORS
330
C
102
}
330
C
100
AcDbDictionary
281
     1
  3
ByBlock
350
3D
  3
ByLayer
350
3C
  3
Global
350
3E
  0
DICTIONARY
  5
160
102
{ACAD_REACTORS
330
C
102
}
330
C
100
AcDbDictionary
281
     1
  3
Standard
350
161
  0
DICTIONARY
  5
17
102
{ACAD_REACTORS
330
C
102
}
330
C
100
AcDbDictionary
281
     1
  3
Standard
350
18
  0
DICTIONARY
  5
19
102
{ACAD_REACTORS
330
C
102
}
330
C
100
AcDbDictionary
281
     1
  0
ACDBDICTIONARYWDFLT
  5
E
102
{ACAD_REACTORS
330
C
102
}
330
C
100
AcDbDictionary
281
     1
  3
Normal
350
F
100
AcDbDictionaryWithDefault
340
F
  0
DICTIONARY
  5
172
102
{ACAD_REACTORS
330
C
102
}
330
C
100
AcDbDictionary
281
     1
  3
Standard
350
173
  0
DICTIONARY
  5
2A
102
{ACAD_REACTORS
330
C
102
}
330
C
100
AcDbDictionary
281
     1
  3
2dWireframe
350
2F
  3
3D Hidden
350
31
  3
3dWireframe
350
30
  3
Basic
350
32
  3
Brighten
350
36
  3
ColorChange
350
3A
  3
Conceptual
350
34
  3
Dim
350
35
  3
Facepattern
350
39
  3
Flat
350
2B
  3
FlatWithEdges
350
2C
  3
Gouraud
350
2D
  3
GouraudWithEdges
350
2E
  3
Linepattern
350
38
  3
Realistic
350
33
  3
Thicken
350
37
  0
XRECORD
  5
2EE
102
{ACAD_REACTORS
330
C
102
}
330
C
100
AcDbXrecord
280
     1
 90
        1
330
173
  0
DICTIONARY
  5
15F
102
{ACAD_REACTORS
330
C
102
}
330
C
100
AcDbDictionary
281
     1
  0
TCOPTIONALDATA
  5
207
102
{ACAD_REACTORS
330
206
102
}
330
206
100
TcOptionalData
 70
     2
 70
   128
 90
        1
  1
#$AUX@_ToolInfo Properties
 70
     8
 90
       14
310
434D445F46494C4C455441524340
  0
TCOPTIONALDATA
  5
20A
102
{ACAD_REACTORS
330
209
102
}
330
209
100
TcOptionalData
 70
     2
 70
   128
 90
        1
  1
#$AUX@_ToolInfo Properties
 70
     8
 90
       19
310
434D445F43454E5445525054434952434C4540
  0
TCOPTIONALDATA
  5
20D
102
{ACAD_REACTORS
330
20C
102
}
330
20C
100
TcOptionalData
 70
     2
 70
   128
 90
        1
  1
#$AUX@_ToolInfo Properties
 70
     8
 90
       14
310
434D445F52454354414E474C4540
  0
TCOPTIONALDATA
  5
211
102
{ACAD_REACTORS
330
210
102
}
330
210
100
TcOptionalData
 70
     2
 70
   144
 90
        1
  1
#$AUX@_ToolInfo Properties
 70
     8
 90
        9
310
434D445F5445585440
  1
Times New Roman
 70
     0
  0
TCOPTIONALDATA
  5
2A6
102
{ACAD_REACTORS
330
2A5
102
}
330
2A5
100
TcOptionalData
 70
     2
 70
   128
 90
        1
  1
#$AUX@_ToolInfo Properties
 70
     8
 90
       19
310
434D445F43454E5445525054434952434C4540
  0
TCOPTIONALDATA
  5
2A9
102
{ACAD_REACTORS
330
2A8
102
}
330
2A8
100
TcOptionalData
 70
     2
 70
   128
 90
        1
  1
#$AUX@_ToolInfo Properties
 70
     8
 90
       14
310
434D445F46494C4C455441524340
  0
TCOPTIONALDATA
  5
2AC
102
{ACAD_REACTORS
330
2AB
102
}
330
2AB
100
TcOptionalData
 70
     2
 70
   128
 90
        1
  1
#$AUX@_ToolInfo Properties
 70
     8
 90
       14
310
434D445F46494C4C455441524340
  0
TCOPTIONALDATA
  5
2AF
102
{ACAD_REACTORS
330
2AE
102
}
330
2AE
100
TcOptionalData
 70
     2
 70
   128
 90
        1
  1
#$AUX@_ToolInfo Properties
 70
     8
 90
       14
310
434D445F46494C4C455441524340
  0
TCOPTIONALDATA
  5
2B2
102
{ACAD_REACTORS
330
2B1
102
}
330
2B1
100
TcOptionalData
 70
     2
 70
   128
 90
        1
  1
#$AUX@_ToolInfo Properties
 70
     8
 90
       14
310
434D445F46494C4C455441524340
  0
TCOPTIONALDATA
  5
2B5
102
{ACAD_REACTORS
330
2B4
102
}
330
2B4
100
TcOptionalData
 70
     2
 70
   128
 90
        1
  1
#$AUX@_ToolInfo Properties
 70
     8
 90
       14
310
434D445F46494C4C455441524340
  0
TCOPTIONALDATA
  5
2B8
102
{ACAD_REACTORS
330
2B7
102
}
330
2B7
100
TcOptionalData
 70
     2
 70
   128
 90
        1
  1
#$AUX@_ToolInfo Properties
 70
     8
 90
       14
310
434D445F46494C4C455441524340
  0
TCOPTIONALDATA
  5
2BB
102
{ACAD_REACTORS
330
2BA
102
}
330
2BA
100
TcOptionalData
 70
     2
 70
   128
 90
        1
  1
#$AUX@_ToolInfo Properties
 70
     8
 90
       14
310
434D445F46494C4C455441524340
  0
TCOPTIONALDATA
  5
2BE
102
{ACAD_REACTORS
330
2BD
102
}
330
2BD
100
TcOptionalData
 70
     2
 70
   128
 90
        1
  1
#$AUX@_ToolInfo Properties
 70
     8
 90
       14
310
434D445F46494C4C455441524340
  0
LAYOUT
  5
1E
102
{ACAD_REACTORS
330
1A
102
}
330
1A
100
AcDbPlotSettings
  1

  2
none_device
  4
ISO_A4_(297.00_x_210.00_MM)
  6

 40
7.5
 41
20.0
 42
7.5
 43
20.0
 44
297.0
 45
210.0
 46
0.0
 47
0.0
 48
0.0
 49
0.0
140
0.0
141
0.0
142
1.0
143
1.0
 70
   672
 72
     0
 73
     0
 74
     5
  7

 75
    16
 76
     0
 77
     2
 78
   300
147
1.0
148
-7.5
149
-20.0
100
AcDbLayout
  1
Layout1
 70
     1
 71
     1
 10
0.0
 20
0.0
 11
11.69291338582677
 21
8.26771653543307
 12
0.0
 22
0.0
 32
0.0
 14
0.0
 24
0.0
 34
0.0
 15
11.69291338582677
 25
8.26771653543307
 35
0.0
146
0.0
 13
0.0
 23
0.0
 33
0.0
 16
1.0
 26
0.0
 36
0.0
 17
0.0
 27
1.0
 37
0.0
 76
     0
330
1B
331
2C0
  0
LAYOUT
  5
150
102
{ACAD_REACTORS
330
1A
102
}
330
1A
100
AcDbPlotSettings
  1

  2
none_device
  4
ISO_B5_(182.00_x_237.00_MM)
  6

 40
7.5
 41
20.0
 42
7.5
 43
20.0
 44
182.0
 45
237.0
 46
0.0
 47
0.0
 48
0.0
 49
0.0
140
0.0
141
0.0
142
1.0
143
1.0
 70
   672
 72
     0
 73
     0
 74
     5
  7

 75
    16
 76
     0
 77
     2
 78
   300
147
1.0
148
-7.5
149
-20.0
100
AcDbLayout
  1
Layout2
 70
     1
 71
     2
 10
0.0
 20
0.0
 11
8.53200000000001
 21
9.34
 12
0.0
 22
0.0
 32
0.0
 14
0.0
 24
0.0
 34
0.0
 15
0.0
 25
0.0
 35
0.0
146
0.0
 13
0.0
 23
0.0
 33
0.0
 16
1.0
 26
0.0
 36
0.0
 17
0.0
 27
1.0
 37
0.0
 76
     0
330
14F
331
2C1
  0
LAYOUT
  5
22
102
{ACAD_REACTORS
330
1A
102
}
330
1A
100
AcDbPlotSettings
  1

  2
none_device
  4
ISO_B5_(237.00_x_182.00_MM)
  6

 40
7.5
 41
20.0
 42
7.5
 43
20.0
 44
237.0
 45
182.0
 46
-7.5
 47
-20.0
 48
-4.670000000000001
 49
-4.266000000000004
140
4.67
141
4.266000000000005
142
1.0
143
1.0
 70
  1696
 72
     0
 73
     0
 74
     4
  7

 75
     0
 76
     0
 77
     2
 78
   300
147
0.5122328013491679
148
0.0
149
0.0
100
AcDbLayout
  1
Model
 70
     1
 71
     0
 10
-0.52355081352485
 20
13.00910508686024
 11
8.81644918647515
 21
21.54110508686025
 12
0.0
 22
0.0
 32
0.0
 14
-1.085387351131084
 24
14.57754090712376
 34
0.0
 15
4.664000000000004
 25
20.47130909287624
 35
0.0
146
0.0
 13
0.0
 23
0.0
 33
0.0
 16
1.0
 26
0.0
 36
0.0
 17
0.0
 27
1.0
 37
0.0
 76
     0
330
1F
331
29
  0
MATERIAL
  5
3D
102
{ACAD_REACTORS
330
3B
102
}
102
{ACAD_XDICTIONARY
360
2E7
102
}
330
3B
100
AcDbMaterial
  1
ByBlock
  0
MATERIAL
  5
3C
102
{ACAD_REACTORS
330
3B
102
}
102
{ACAD_XDICTIONARY
360
2E5
102
}
330
3B
100
AcDbMaterial
  1
ByLayer
  0
MATERIAL
  5
3E
102
{ACAD_REACTORS
330
3B
102
}
102
{ACAD_XDICTIONARY
360
2E9
102
}
330
3B
100
AcDbMaterial
  1
Global
  0
MLEADERSTYLE
  5
161
102
{ACAD_REACTORS
330
160
102
}
330
160
100
AcDbMLeaderStyle
170
     2
171
     1
172
     0
 90
        2
 40
0.0
 41
0.0
173
     1
 91
-1056964608
340
14
 92
       -2
290
     1
 42
0.25
291
     1
 43
0.25
  3

341
0
 44
0.25
300

342
11
174
     1
178
     1
175
     1
176
     0
 93
-1056964608
 45
0.15
292
     0
297
     0
 46
0.18
343
0
 94
-1056964608
 47
1.0
 49
1.0
140
1.0
293
     1
141
0.0
294
     1
177
     0
142
1.0
295
     0
296
     0
143
0.125
1001
ACAD_MLEADERVER
1070
     2
  0
MLINESTYLE
  5
18
102
{ACAD_REACTORS
330
17
102
}
330
17
100
AcDbMlineStyle
  2
Standard
 70
     0
  3

 62
   256
 51
90.0
 52
90.0
 71
     6
 49
0.5
 62
   256
  6
BYLAYER
 49
-0.5
 62
   256
  6
BYLAYER
 49
0.5
 62
   256
  6
BYLAYER
 49
-0.5
 62
   256
  6
BYLAYER
 49
0.5
 62
   256
  6
BYLAYER
 49
-0.5
 62
   256
  6
BYLAYER
  0
ACDBPLACEHOLDER
  5
F
102
{ACAD_REACTORS
330
E
102
}
330
E
  0
TABLESTYLE
  5
173
102
{ACAD_REACTORS
330
172
102
}
102
{ACAD_XDICTIONARY
360
2EB
102
}
330
172
100
AcDbTableStyle
  3

 70
     0
 71
     0
 40
0.06
 41
0.06
280
     0
281
     0
  7
Standard
140
0.2000000178813934
170
     5
 62
     0
 63
   257
283
     1
274
    -2
284
     1
 64
     0
275
    -2
285
     1
 65
     0
276
    -2
286
     1
 66
     0
277
    -2
287
     1
 67
     0
278
    -2
288
     1
 68
     0
279
    -2
289
     1
 69
     0
  7
Standard
140
0.2000000178813934
170
     5
 62
     0
 63
   257
283
     1
274
    -2
284
     1
 64
     0
275
    -2
285
     1
 65
     0
276
    -2
286
     1
 66
     0
277
    -2
287
     1
 67
     0
278
    -2
288
     1
 68
     0
279
    -2
289
     1
 69
     0
  7
Standard
140
0.2000000178813934
170
     5
 62
     0
 63
   257
283
     1
274
    -2
284
     1
 64
     0
275
    -2
285
     1
 65
     0
276
    -2
286
     1
 66
     0
277
    -2
287
     1
 67
     0
278
    -2
288
     1
 68
     0
279
    -2
289
     1
 69
     0
  0
VISUALSTYLE
  5
2F
102
{ACAD_REACTORS
330
2A
102
}
102
{ACAD_XDICTIONARY
360
2CD
102
}
330
2A
100
AcDbVisualStyle
  2
2dWireframe
 70
     4
 71
     0
 72
     2
 73
     0
 90
        0
 40
-0.6
 41
-30.0
 62
     5
 63
     7
421
 16777215
 74
     1
 91
        4
 64
     7
 65
   257
 75
     1
175
     1
 42
1.0
 92
        0
 66
   257
 43
1.0
 76
     1
 77
     6
 78
     2
 67
     7
 79
     5
170
     0
171
     0
290
     0
174
     0
 93
        1
 44
0.0
173
     0
291
     0
 45
0.0
1001
ACAD
1000
AcDbSavedByObjectVersion
1070
     0
  0
VISUALSTYLE
  5
31
102
{ACAD_REACTORS
330
2A
102
}
102
{ACAD_XDICTIONARY
360
2D1
102
}
330
2A
100
AcDbVisualStyle
  2
3D Hidden
 70
     6
 71
     1
 72
     2
 73
     2
 90
        0
 40
-0.6
 41
-30.0
 62
     5
 63
     7
421
 16777215
 74
     2
 91
        2
 64
     7
 65
   257
 75
     2
175
     1
 42
40.0
 92
        0
 66
   257
 43
1.0
 76
     1
 77
     6
 78
     2
 67
     7
 79
     3
170
     0
171
     0
290
     0
174
     0
 93
        1
 44
0.0
173
     0
291
     0
 45
0.0
1001
ACAD
1000
AcDbSavedByObjectVersion
1070
     0
  0
VISUALSTYLE
  5
30
102
{ACAD_REACTORS
330
2A
102
}
102
{ACAD_XDICTIONARY
360
2CF
102
}
330
2A
100
AcDbVisualStyle
  2
3dWireframe
 70
     5
 71
     0
 72
     2
 73
     0
 90
        0
 40
-0.6
 41
-30.0
 62
     5
 63
     7
421
 16777215
 74
     1
 91
        4
 64
     7
 65
   257
 75
     1
175
     1
 42
1.0
 92
        0
 66
   257
 43
1.0
 76
     1
 77
     6
 78
     2
 67
     7
 79
     5
170
     0
171
     0
290
     0
174
     0
 93
        1
 44
0.0
173
     0
291
     0
 45
0.0
1001
ACAD
1000
AcDbSavedByObjectVersion
1070
     0
  0
VISUALSTYLE
  5
32
102
{ACAD_REACTORS
330
2A
102
}
102
{ACAD_XDICTIONARY
360
2D3
102
}
330
2A
100
AcDbVisualStyle
  2
Basic
 70
     7
 71
     1
 72
     0
 73
     1
 90
        0
 40
-0.6
 41
-30.0
 62
     5
 63
     7
421
 16777215
 74
     0
 91
        4
 64
     7
 65
   257
 75
     1
175
     1
 42
1.0
 92
        8
 66
     7
 43
1.0
 76
     1
 77
     6
 78
     2
 67
     7
 79
     5
170
     0
171
     0
290
     0
174
     0
 93
        1
 44
0.0
173
     0
291
     1
 45
0.0
1001
ACAD
1000
AcDbSavedByObjectVersion
1070
     0
  0
VISUALSTYLE
  5
36
102
{ACAD_REACTORS
330
2A
102
}
102
{ACAD_XDICTIONARY
360
2DB
102
}
330
2A
100
AcDbVisualStyle
  2
Brighten
 70
    12
 71
     2
 72
     2
 73
     0
 90
        0
 40
-0.6
 41
-30.0
 62
     5
 63
     7
421
 16777215
 74
     1
 91
        4
 64
     7
 65
   257
 75
     1
175
     1
 42
1.0
 92
        8
 66
     7
 43
1.0
 76
     1
 77
     6
 78
     2
 67
     7
 79
     5
170
     0
171
     0
290
     0
174
     0
 93
        1
 44
50.0
173
     0
291
     1
 45
0.0
1001
ACAD
1000
AcDbSavedByObjectVersion
1070
     0
  0
VISUALSTYLE
  5
3A
102
{ACAD_REACTORS
330
2A
102
}
102
{ACAD_XDICTIONARY
360
2E3
102
}
330
2A
100
AcDbVisualStyle
  2
ColorChange
 70
    16
 71
     2
 72
     2
 73
     3
 90
        0
 40
-0.6
 41
-30.0
 62
     5
 63
     8
421
  8421504
 74
     1
 91
        4
 64
     7
 65
   257
 75
     1
175
     1
 42
1.0
 92
        8
 66
     8
424
  8421504
 43
1.0
 76
     1
 77
     6
 78
     2
 67
     7
 79
     5
170
     0
171
     0
290
     0
174
     0
 93
        1
 44
0.0
173
     0
291
     1
 45
0.0
1001
ACAD
1000
AcDbSavedByObjectVersion
1070
     0
  0
VISUALSTYLE
  5
34
102
{ACAD_REACTORS
330
2A
102
}
102
{ACAD_XDICTIONARY
360
2D7
102
}
330
2A
100
AcDbVisualStyle
  2
Conceptual
 70
     9
 71
     3
 72
     2
 73
     0
 90
        0
 40
-0.6
 41
-30.0
 62
     5
 63
     7
421
 16777215
 74
     2
 91
        2
 64
     7
 65
   257
 75
     1
175
     1
 42
40.0
 92
        8
 66
     7
 43
1.0
 76
     1
 77
     6
 78
     2
 67
     7
 79
     3
170
     0
171
     0
290
     0
174
     0
 93
        1
 44
0.0
173
     0
291
     0
 45
0.0
1001
ACAD
1000
AcDbSavedByObjectVersion
1070
     0
  0
VISUALSTYLE
  5
35
102
{ACAD_REACTORS
330
2A
102
}
102
{ACAD_XDICTIONARY
360
2D9
102
}
330
2A
100
AcDbVisualStyle
  2
Dim
 70
    11
 71
     2
 72
     2
 73
     0
 90
        0
 40
-0.6
 41
-30.0
 62
     5
 63
     7
421
 16777215
 74
     1
 91
        4
 64
     7
 65
   257
 75
     1
175
     1
 42
1.0
 92
        8
 66
     7
 43
1.0
 76
     1
 77
     6
 78
     2
 67
     7
 79
     5
170
     0
171
     0
290
     0
174
     0
 93
        1
 44
-50.0
173
     0
291
     1
 45
0.0
1001
ACAD
1000
AcDbSavedByObjectVersion
1070
     0
  0
VISUALSTYLE
  5
39
102
{ACAD_REACTORS
330
2A
102
}
102
{ACAD_XDICTIONARY
360
2E1
102
}
330
2A
100
AcDbVisualStyle
  2
Facepattern
 70
    15
 71
     2
 72
     2
 73
     0
 90
        0
 40
-0.6
 41
-30.0
 62
     5
 63
     7
421
 16777215
 74
     1
 91
        4
 64
     7
 65
   257
 75
     1
175
     1
 42
1.0
 92
        8
 66
     7
 43
1.0
 76
     1
 77
     6
 78
     2
 67
     7
 79
     5
170
     0
171
     0
290
     0
174
     0
 93
        1
 44
0.0
173
     0
291
     1
 45
0.0
1001
ACAD
1000
AcDbSavedByObjectVersion
1070
     0
  0
VISUALSTYLE
  5
2B
102
{ACAD_REACTORS
330
2A
102
}
102
{ACAD_XDICTIONARY
360
2C5
102
}
330
2A
100
AcDbVisualStyle
  2
Flat
 70
     0
 71
     2
 72
     1
 73
     1
 90
        2
 40
-0.6
 41
30.0
 62
     5
 63
     7
421
 16777215
 74
     0
 91
        4
 64
     7
 65
   257
 75
     1
175
     1
 42
1.0
 92
        8
 66
     7
 43
1.0
 76
     1
 77
     6
 78
     2
 67
     7
 79
     5
170
     0
171
     0
290
     0
174
     0
 93
       13
 44
0.0
173
     0
291
     1
 45
0.0
1001
ACAD
1000
AcDbSavedByObjectVersion
1070
     0
  0
VISUALSTYLE
  5
2C
102
{ACAD_REACTORS
330
2A
102
}
102
{ACAD_XDICTIONARY
360
2C7
102
}
330
2A
100
AcDbVisualStyle
  2
FlatWithEdges
 70
     1
 71
     2
 72
     1
 73
     1
 90
        2
 40
-0.6
 41
30.0
 62
     5
 63
     7
421
 16777215
 74
     1
 91
        4
 64
     7
 65
   257
 75
     1
175
     1
 42
1.0
 92
        0
 66
   257
 43
1.0
 76
     1
 77
     6
 78
     2
 67
     7
 79
     5
170
     0
171
     0
290
     0
174
     0
 93
       13
 44
0.0
173
     0
291
     1
 45
0.0
1001
ACAD
1000
AcDbSavedByObjectVersion
1070
     0
  0
VISUALSTYLE
  5
2D
102
{ACAD_REACTORS
330
2A
102
}
102
{ACAD_XDICTIONARY
360
2C9
102
}
330
2A
100
AcDbVisualStyle
  2
Gouraud
 70
     2
 71
     2
 72
     2
 73
     1
 90
        2
 40
-0.6
 41
30.0
 62
     5
 63
     7
421
 16777215
 74
     0
 91
        4
 64
     7
 65
   257
 75
     1
175
     1
 42
1.0
 92
        0
 66
     7
 43
1.0
 76
     1
 77
     6
 78
     2
 67
     7
 79
     5
170
     0
171
     0
290
     0
174
     0
 93
       13
 44
0.0
173
     0
291
     1
 45
0.0
1001
ACAD
1000
AcDbSavedByObjectVersion
1070
     0
  0
VISUALSTYLE
  5
2E
102
{ACAD_REACTORS
330
2A
102
}
102
{ACAD_XDICTIONARY
360
2CB
102
}
330
2A
100
AcDbVisualStyle
  2
GouraudWithEdges
 70
     3
 71
     2
 72
     2
 73
     1
 90
        2
 40
-0.6
 41
30.0
 62
     5
 63
     7
421
 16777215
 74
     1
 91
        4
 64
     7
 65
   257
 75
     1
175
     1
 42
1.0
 92
        0
 66
   257
 43
1.0
 76
     1
 77
     6
 78
     2
 67
     7
 79
     5
170
     0
171
     0
290
     0
174
     0
 93
       13
 44
0.0
173
     0
291
     1
 45
0.0
1001
ACAD
1000
AcDbSavedByObjectVersion
1070
     0
  0
VISUALSTYLE
  5
38
102
{ACAD_REACTORS
330
2A
102
}
102
{ACAD_XDICTIONARY
360
2DF
102
}
330
2A
100
AcDbVisualStyle
  2
Linepattern
 70
    14
 71
     2
 72
     2
 73
     0
 90
        0
 40
-0.6
 41
-30.0
 62
     5
 63
     7
421
 16777215
 74
     1
 91
        4
 64
     7
 65
   257
 75
     7
175
     7
 42
1.0
 92
        8
 66
     7
 43
1.0
 76
     1
 77
     6
 78
     2
 67
     7
 79
     5
170
     0
171
     0
290
     0
174
     0
 93
        1
 44
0.0
173
     0
291
     1
 45
0.0
1001
ACAD
1000
AcDbSavedByObjectVersion
1070
     0
  0
VISUALSTYLE
  5
33
102
{ACAD_REACTORS
330
2A
102
}
102
{ACAD_XDICTIONARY
360
2D5
102
}
330
2A
100
AcDbVisualStyle
  2
Realistic
 70
     8
 71
     2
 72
     2
 73
     0
 90
        0
 40
-0.6
 41
-30.0
 62
     5
 63
     7
421
 16777215
 74
     1
 91
        0
 64
     7
 65
   257
 75
     1
175
     1
 42
1.0
 92
        8
 66
     8
424
  7895160
 43
1.0
 76
     1
 77
     6
 78
     2
 67
     7
 79
     5
170
     0
171
     0
290
     0
174
     0
 93
       13
 44
0.0
173
     0
291
     0
 45
0.0
1001
ACAD
1000
AcDbSavedByObjectVersion
1070
     0
  0
VISUALSTYLE
  5
37
102
{ACAD_REACTORS
330
2A
102
}
102
{ACAD_XDICTIONARY
360
2DD
102
}
330
2A
100
AcDbVisualStyle
  2
Thicken
 70
    13
 71
     2
 72
     2
 73
     0
 90
        0
 40
-0.6
 41
-30.0
 62
     5
 63
     7
421
 16777215
 74
     1
 91
        4
 64
     7
 65
   257
 75
     1
175
     1
 42
1.0
 92
       12
 66
     7
 43
1.0
 76
     1
 77
     6
 78
     2
 67
     7
 79
     5
170
     0
171
     0
290
     0
174
     0
 93
        1
 44
0.0
173
     0
291
     1
 45
0.0
1001
ACAD
1000
AcDbSavedByObjectVersion
1070
     0
  0
DICTIONARY
  5
2E7
330
3D
100
AcDbDictionary
280
     1
281
     1
  3
ACAD_XREC_ROUNDTRIP
360
2E8
  0
DICTIONARY
  5
2E5
330
3C
100
AcDbDictionary
280
     1
281
     1
  3
ACAD_XREC_ROUNDTRIP
360
2E6
  0
DICTIONARY
  5
2E9
330
3E
100
AcDbDictionary
280
     1
281
     1
  3
ACAD_XREC_ROUNDTRIP
360
2EA
  0
DICTIONARY
  5
2EB
330
173
100
AcDbDictionary
280
     1
281
     1
  3
ACAD_ROUNDTRIP_2008_TABLESTYLE_CELLSTYLEMAP
360
2ED
  3
ACAD_XREC_ROUNDTRIP
360
2EC
  0
DICTIONARY
  5
2CD
330
2F
100
AcDbDictionary
280
     1
281
     1
  3
ACAD_XREC_ROUNDTRIP
360
2CE
  0
DICTIONARY
  5
2D1
330
31
100
AcDbDictionary
280
     1
281
     1
  3
ACAD_XREC_ROUNDTRIP
360
2D2
  0
DICTIONARY
  5
2CF
330
30
100
AcDbDictionary
280
     1
281
     1
  3
ACAD_XREC_ROUNDTRIP
360
2D0
  0
DICTIONARY
  5
2D3
330
32
100
AcDbDictionary
280
     1
281
     1
  3
ACAD_XREC_ROUNDTRIP
360
2D4
  0
DICTIONARY
  5
2DB
330
36
100
AcDbDictionary
280
     1
281
     1
  3
ACAD_XREC_ROUNDTRIP
360
2DC
  0
DICTIONARY
  5
2E3
330
3A
100
AcDbDictionary
280
     1
281
     1
  3
ACAD_XREC_ROUNDTRIP
360
2E4
  0
DICTIONARY
  5
2D7
330
34
100
AcDbDictionary
280
     1
281
     1
  3
ACAD_XREC_ROUNDTRIP
360
2D8
  0
DICTIONARY
  5
2D9
330
35
100
AcDbDictionary
280
     1
281
     1
  3
ACAD_XREC_ROUNDTRIP
360
2DA
  0
DICTIONARY
  5
2E1
330
39
100
AcDbDictionary
280
     1
281
     1
  3
ACAD_XREC_ROUNDTRIP
360
2E2
  0
DICTIONARY
  5
2C5
330
2B
100
AcDbDictionary
280
     1
281
     1
  3
ACAD_XREC_ROUNDTRIP
360
2C6
  0
DICTIONARY
  5
2C7
330
2C
100
AcDbDictionary
280
     1
281
     1
  3
ACAD_XREC_ROUNDTRIP
360
2C8
  0
DICTIONARY
  5
2C9
330
2D
100
AcDbDictionary
280
     1
281
     1
  3
ACAD_XREC_ROUNDTRIP
360
2CA
  0
DICTIONARY
  5
2CB
330
2E
100
AcDbDictionary
280
     1
281
     1
  3
ACAD_XREC_ROUNDTRIP
360
2CC
  0
DICTIONARY
  5
2DF
330
38
100
AcDbDictionary
280
     1
281
     1
  3
ACAD_XREC_ROUNDTRIP
360
2E0
  0
DICTIONARY
  5
2D5
330
33
100
AcDbDictionary
280
     1
281
     1
  3
ACAD_XREC_ROUNDTRIP
360
2D6
  0
DICTIONARY
  5
2DD
330
37
100
AcDbDictionary
280
     1
281
     1
  3
ACAD_XREC_ROUNDTRIP
360
2DE
  0
XRECORD
  5
2E8
102
{ACAD_REACTORS
330
2E7
102
}
330
2E7
100
AcDbXrecord
280
     1
102
MATERIAL
148
0.0
149
0.0
149
0.0
 93
        0
 94
      127
282
     0
 72
     1
 77
     1
171
     1
175
     1
179
     1
273
     0
  0
XRECORD
  5
2E6
102
{ACAD_REACTORS
330
2E5
102
}
330
2E5
100
AcDbXrecord
280
     1
102
MATERIAL
148
0.0
149
0.0
149
0.0
 93
        0
 94
      127
282
     0
 72
     1
 77
     1
171
     1
175
     1
179
     1
273
     0
  0
XRECORD
  5
2EA
102
{ACAD_REACTORS
330
2E9
102
}
330
2E9
100
AcDbXrecord
280
     1
102
MATERIAL
148
0.0
149
0.0
149
0.0
 93
        0
 94
      127
282
     0
 72
     1
 77
     1
171
     1
175
     1
179
     1
273
     0
  0
CELLSTYLEMAP
  5
2ED
102
{ACAD_REACTORS
330
2EB
102
}
330
2EB
100
AcDbCellStyleMap
 90
        3
300
CELLSTYLE
  1
TABLEFORMAT_BEGIN
 90
        5
170
     1
 91
        0
 92
        0
 62
   257
 93
        1
300
CONTENTFORMAT
  1
CONTENTFORMAT_BEGIN
 90
        0
 91
        0
 92
        4
 93
        0
300

 40
0.0
140
1.0
 94
        5
 62
     0
340
11
144
0.2000000178813934
309
CONTENTFORMAT_END
171
     0
 94
        6
 95
        1
302
GRIDFORMAT
  1
GRIDFORMAT_BEGIN
 90
        0
 91
        1
 62
     0
 92
       -2
340
0
 93
        0
 40
0.045
309
GRIDFORMAT_END
 95
        2
302
GRIDFORMAT
  1
GRIDFORMAT_BEGIN
 90
        0
 91
        1
 62
     0
 92
       -2
340
0
 93
        0
 40
0.045
309
GRIDFORMAT_END
 95
        4
302
GRIDFORMAT
  1
GRIDFORMAT_BEGIN
 90
        0
 91
        1
 62
     0
 92
       -2
340
0
 93
        0
 40
0.045
309
GRIDFORMAT_END
 95
        8
302
GRIDFORMAT
  1
GRIDFORMAT_BEGIN
 90
        0
 91
        1
 62
     0
 92
       -2
340
0
 93
        0
 40
0.045
309
GRIDFORMAT_END
 95
       16
302
GRIDFORMAT
  1
GRIDFORMAT_BEGIN
 90
        0
 91
        1
 62
     0
 92
       -2
340
0
 93
        0
 40
0.045
309
GRIDFORMAT_END
 95
       32
302
GRIDFORMAT
  1
GRIDFORMAT_BEGIN
 90
        0
 91
        1
 62
     0
 92
       -2
340
0
 93
        0
 40
0.045
309
GRIDFORMAT_END
309
TABLEFORMAT_END
  1
CELLSTYLE_BEGIN
 90
        1
 91
        1
300
_TITLE
309
CELLSTYLE_END
300
CELLSTYLE
  1
TABLEFORMAT_BEGIN
 90
        5
170
     1
 91
        0
 92
        0
 62
   257
 93
        1
300
CONTENTFORMAT
  1
CONTENTFORMAT_BEGIN
 90
        0
 91
        0
 92
        4
 93
        0
300

 40
0.0
140
1.0
 94
        5
 62
     0
340
11
144
0.2000000178813934
309
CONTENTFORMAT_END
171
     0
 94
        6
 95
        1
302
GRIDFORMAT
  1
GRIDFORMAT_BEGIN
 90
        0
 91
        1
 62
     0
 92
       -2
340
0
 93
        0
 40
0.045
309
GRIDFORMAT_END
 95
        2
302
GRIDFORMAT
  1
GRIDFORMAT_BEGIN
 90
        0
 91
        1
 62
     0
 92
       -2
340
0
 93
        0
 40
0.045
309
GRIDFORMAT_END
 95
        4
302
GRIDFORMAT
  1
GRIDFORMAT_BEGIN
 90
        0
 91
        1
 62
     0
 92
       -2
340
0
 93
        0
 40
0.045
309
GRIDFORMAT_END
 95
        8
302
GRIDFORMAT
  1
GRIDFORMAT_BEGIN
 90
        0
 91
        1
 62
     0
 92
       -2
340
0
 93
        0
 40
0.045
309
GRIDFORMAT_END
 95
       16
302
GRIDFORMAT
  1
GRIDFORMAT_BEGIN
 90
        0
 91
        1
 62
     0
 92
       -2
340
0
 93
        0
 40
0.045
309
GRIDFORMAT_END
 95
       32
302
GRIDFORMAT
  1
GRIDFORMAT_BEGIN
 90
        0
 91
        1
 62
     0
 92
       -2
340
0
 93
        0
 40
0.045
309
GRIDFORMAT_END
309
TABLEFORMAT_END
  1
CELLSTYLE_BEGIN
 90
        2
 91
        1
300
_HEADER
309
CELLSTYLE_END
300
CELLSTYLE
  1
TABLEFORMAT_BEGIN
 90
        5
170
     1
 91
        0
 92
        0
 62
   257
 93
        1
300
CONTENTFORMAT
  1
CONTENTFORMAT_BEGIN
 90
        0
 91
        0
 92
        4
 93
        0
300

 40
0.0
140
1.0
 94
        5
 62
     0
340
11
144
0.2000000178813934
309
CONTENTFORMAT_END
171
     0
 94
        6
 95
        1
302
GRIDFORMAT
  1
GRIDFORMAT_BEGIN
 90
        0
 91
        1
 62
     0
 92
       -2
340
0
 93
        0
 40
0.045
309
GRIDFORMAT_END
 95
        2
302
GRIDFORMAT
  1
GRIDFORMAT_BEGIN
 90
        0
 91
        1
 62
     0
 92
       -2
340
0
 93
        0
 40
0.045
309
GRIDFORMAT_END
 95
        4
302
GRIDFORMAT
  1
GRIDFORMAT_BEGIN
 90
        0
 91
        1
 62
     0
 92
       -2
340
0
 93
        0
 40
0.045
309
GRIDFORMAT_END
 95
        8
302
GRIDFORMAT
  1
GRIDFORMAT_BEGIN
 90
        0
 91
        1
 62
     0
 92
       -2
340
0
 93
        0
 40
0.045
309
GRIDFORMAT_END
 95
       16
302
GRIDFORMAT
  1
GRIDFORMAT_BEGIN
 90
        0
 91
        1
 62
     0
 92
       -2
340
0
 93
        0
 40
0.045
309
GRIDFORMAT_END
 95
       32
302
GRIDFORMAT
  1
GRIDFORMAT_BEGIN
 90
        0
 91
        1
 62
     0
 92
       -2
340
0
 93
        0
 40
0.045
309
GRIDFORMAT_END
309
TABLEFORMAT_END
  1
CELLSTYLE_BEGIN
 90
        3
 91
        2
300
_DATA
309
CELLSTYLE_END
  0
XRECORD
  5
2EC
102
{ACAD_REACTORS
330
2EB
102
}
330
2EB
100
AcDbXrecord
280
     1
102
ACAD_ROUNDTRIP_PRE2007_TABLESTYLE
 90
        4
 91
        0
  1

 92
        4
 93
        0
  2

 94
        4
 95
        0
  3

  0
XRECORD
  5
2CE
102
{ACAD_REACTORS
330
2CD
102
}
330
2CD
100
AcDbXrecord
280
     1
102
RTVSPropertyOp0
 70
     1
102
RTVSPropertyOp1
 70
     1
102
RTVSPropertyOp2
 70
     1
102
RTVSPropertyOp3
 70
     1
102
RTVSPropertyOp4
 70
     1
102
RTVSPropertyOp5
 70
     1
102
RTVSPropertyOp6
 70
     1
102
RTVSPropertyOp7
 70
     1
102
RTVSPropertyOp8
 70
     1
102
RTVSPropertyOp9
 70
     1
102
RTVSPropertyOp10
 70
     1
102
RTVSPropertyOp11
 70
     1
102
RTVSPropertyOp12
 70
     1
102
RTVSPropertyOp13
 70
     1
102
RTVSPropertyOp14
 70
     1
102
RTVSPropertyOp15
 70
     1
102
RTVSPropertyOp16
 70
     1
102
RTVSPropertyOp17
 70
     1
102
RTVSPropertyOp18
 70
     1
102
RTVSPropertyOp19
 70
     1
102
RTVSPropertyOp20
 70
     1
102
RTVSPropertyOp21
 70
     1
102
RTVSPropertyOp22
 70
     1
102
RTVSPropertyOp23
 70
     1
102
RTVSPropertyOp24
 70
     1
102
RTVSPropertyOp25
 70
     1
102
RTVSPropertyOp26
 70
     1
102
RTVSPropertyOp27
 70
     1
  0
XRECORD
  5
2D2
102
{ACAD_REACTORS
330
2D1
102
}
330
2D1
100
AcDbXrecord
280
     1
102
RTVSPropertyOp0
 70
     1
102
RTVSPropertyOp1
 70
     1
102
RTVSPropertyOp2
 70
     1
102
RTVSPropertyOp3
 70
     1
102
RTVSPropertyOp4
 70
     1
102
RTVSPropertyOp5
 70
     1
102
RTVSPropertyOp6
 70
     1
102
RTVSPropertyOp7
 70
     1
102
RTVSPropertyOp8
 70
     1
102
RTVSPropertyOp9
 70
     1
102
RTVSPropertyOp10
 70
     1
102
RTVSPropertyOp11
 70
     1
102
RTVSPropertyOp12
 70
     1
102
RTVSPropertyOp13
 70
     1
102
RTVSPropertyOp14
 70
     1
102
RTVSPropertyOp15
 70
     1
102
RTVSPropertyOp16
 70
     1
102
RTVSPropertyOp17
 70
     1
102
RTVSPropertyOp18
 70
     1
102
RTVSPropertyOp19
 70
     1
102
RTVSPropertyOp20
 70
     1
102
RTVSPropertyOp21
 70
     1
102
RTVSPropertyOp22
 70
     1
102
RTVSPropertyOp23
 70
     1
102
RTVSPropertyOp24
 70
     1
102
RTVSPropertyOp25
 70
     1
102
RTVSPropertyOp26
 70
     1
102
RTVSPropertyOp27
 70
     1
  0
XRECORD
  5
2D0
102
{ACAD_REACTORS
330
2CF
102
}
330
2CF
100
AcDbXrecord
280
     1
102
RTVSPropertyOp0
 70
     1
102
RTVSPropertyOp1
 70
     1
102
RTVSPropertyOp2
 70
     1
102
RTVSPropertyOp3
 70
     1
102
RTVSPropertyOp4
 70
     1
102
RTVSPropertyOp5
 70
     1
102
RTVSPropertyOp6
 70
     1
102
RTVSPropertyOp7
 70
     1
102
RTVSPropertyOp8
 70
     1
102
RTVSPropertyOp9
 70
     1
102
RTVSPropertyOp10
 70
     1
102
RTVSPropertyOp11
 70
     1
102
RTVSPropertyOp12
 70
     1
102
RTVSPropertyOp13
 70
     1
102
RTVSPropertyOp14
 70
     1
102
RTVSPropertyOp15
 70
     1
102
RTVSPropertyOp16
 70
     1
102
RTVSPropertyOp17
 70
     1
102
RTVSPropertyOp18
 70
     1
102
RTVSPropertyOp19
 70
     1
102
RTVSPropertyOp20
 70
     1
102
RTVSPropertyOp21
 70
     1
102
RTVSPropertyOp22
 70
     1
102
RTVSPropertyOp23
 70
     1
102
RTVSPropertyOp24
 70
     1
102
RTVSPropertyOp25
 70
     1
102
RTVSPropertyOp26
 70
     1
102
RTVSPropertyOp27
 70
     1
  0
XRECORD
  5
2D4
102
{ACAD_REACTORS
330
2D3
102
}
330
2D3
100
AcDbXrecord
280
     1
102
RTVSPropertyOp0
 70
     1
102
RTVSPropertyOp1
 70
     1
102
RTVSPropertyOp2
 70
     1
102
RTVSPropertyOp3
 70
     1
102
RTVSPropertyOp4
 70
     1
102
RTVSPropertyOp5
 70
     1
102
RTVSPropertyOp6
 70
     1
102
RTVSPropertyOp7
 70
     1
102
RTVSPropertyOp8
 70
     1
102
RTVSPropertyOp9
 70
     1
102
RTVSPropertyOp10
 70
     1
102
RTVSPropertyOp11
 70
     1
102
RTVSPropertyOp12
 70
     1
102
RTVSPropertyOp13
 70
     1
102
RTVSPropertyOp14
 70
     1
102
RTVSPropertyOp15
 70
     1
102
RTVSPropertyOp16
 70
     1
102
RTVSPropertyOp17
 70
     1
102
RTVSPropertyOp18
 70
     1
102
RTVSPropertyOp19
 70
     1
102
RTVSPropertyOp20
 70
     1
102
RTVSPropertyOp21
 70
     1
102
RTVSPropertyOp22
 70
     1
102
RTVSPropertyOp23
 70
     1
102
RTVSPropertyOp24
 70
     1
102
RTVSPropertyOp25
 70
     1
102
RTVSPropertyOp26
 70
     1
102
RTVSPropertyOp27
 70
     1
  0
XRECORD
  5
2DC
102
{ACAD_REACTORS
330
2DB
102
}
330
2DB
100
AcDbXrecord
280
     1
102
RTVSPropertyOp0
 70
     1
102
RTVSPropertyOp1
 70
     1
102
RTVSPropertyOp2
 70
     1
102
RTVSPropertyOp3
 70
     1
102
RTVSPropertyOp4
 70
     1
102
RTVSPropertyOp5
 70
     1
102
RTVSPropertyOp6
 70
     1
102
RTVSPropertyOp7
 70
     1
102
RTVSPropertyOp8
 70
     1
102
RTVSPropertyOp9
 70
     1
102
RTVSPropertyOp10
 70
     1
102
RTVSPropertyOp11
 70
     1
102
RTVSPropertyOp12
 70
     1
102
RTVSPropertyOp13
 70
     1
102
RTVSPropertyOp14
 70
     1
102
RTVSPropertyOp15
 70
     1
102
RTVSPropertyOp16
 70
     1
102
RTVSPropertyOp17
 70
     1
102
RTVSPropertyOp18
 70
     1
102
RTVSPropertyOp19
 70
     1
102
RTVSPropertyOp20
 70
     1
102
RTVSPropertyOp21
 70
     1
102
RTVSPropertyOp22
 70
     1
102
RTVSPropertyOp23
 70
     1
102
RTVSPropertyOp24
 70
     1
102
RTVSPropertyOp25
 70
     1
102
RTVSPropertyOp26
 70
     1
102
RTVSPropertyOp27
 70
     1
  0
XRECORD
  5
2E4
102
{ACAD_REACTORS
330
2E3
102
}
330
2E3
100
AcDbXrecord
280
     1
102
RTVSPropertyOp0
 70
     1
102
RTVSPropertyOp1
 70
     1
102
RTVSPropertyOp2
 70
     1
102
RTVSPropertyOp3
 70
     1
102
RTVSPropertyOp4
 70
     1
102
RTVSPropertyOp5
 70
     1
102
RTVSPropertyOp6
 70
     1
102
RTVSPropertyOp7
 70
     1
102
RTVSPropertyOp8
 70
     1
102
RTVSPropertyOp9
 70
     1
102
RTVSPropertyOp10
 70
     1
102
RTVSPropertyOp11
 70
     1
102
RTVSPropertyOp12
 70
     1
102
RTVSPropertyOp13
 70
     1
102
RTVSPropertyOp14
 70
     1
102
RTVSPropertyOp15
 70
     1
102
RTVSPropertyOp16
 70
     1
102
RTVSPropertyOp17
 70
     1
102
RTVSPropertyOp18
 70
     1
102
RTVSPropertyOp19
 70
     1
102
RTVSPropertyOp20
 70
     1
102
RTVSPropertyOp21
 70
     1
102
RTVSPropertyOp22
 70
     1
102
RTVSPropertyOp23
 70
     1
102
RTVSPropertyOp24
 70
     1
102
RTVSPropertyOp25
 70
     1
102
RTVSPropertyOp26
 70
     1
102
RTVSPropertyOp27
 70
     1
  0
XRECORD
  5
2D8
102
{ACAD_REACTORS
330
2D7
102
}
330
2D7
100
AcDbXrecord
280
     1
102
RTVSPropertyOp0
 70
     1
102
RTVSPropertyOp1
 70
     1
102
RTVSPropertyOp2
 70
     1
102
RTVSPropertyOp3
 70
     1
102
RTVSPropertyOp4
 70
     1
102
RTVSPropertyOp5
 70
     1
102
RTVSPropertyOp6
 70
     1
102
RTVSPropertyOp7
 70
     1
102
RTVSPropertyOp8
 70
     1
102
RTVSPropertyOp9
 70
     1
102
RTVSPropertyOp10
 70
     1
102
RTVSPropertyOp11
 70
     1
102
RTVSPropertyOp12
 70
     1
102
RTVSPropertyOp13
 70
     1
102
RTVSPropertyOp14
 70
     1
102
RTVSPropertyOp15
 70
     1
102
RTVSPropertyOp16
 70
     1
102
RTVSPropertyOp17
 70
     1
102
RTVSPropertyOp18
 70
     1
102
RTVSPropertyOp19
 70
     1
102
RTVSPropertyOp20
 70
     1
102
RTVSPropertyOp21
 70
     1
102
RTVSPropertyOp22
 70
     1
102
RTVSPropertyOp23
 70
     1
102
RTVSPropertyOp24
 70
     1
102
RTVSPropertyOp25
 70
     1
102
RTVSPropertyOp26
 70
     1
102
RTVSPropertyOp27
 70
     1
  0
XRECORD
  5
2DA
102
{ACAD_REACTORS
330
2D9
102
}
330
2D9
100
AcDbXrecord
280
     1
102
RTVSPropertyOp0
 70
     1
102
RTVSPropertyOp1
 70
     1
102
RTVSPropertyOp2
 70
     1
102
RTVSPropertyOp3
 70
     1
102
RTVSPropertyOp4
 70
     1
102
RTVSPropertyOp5
 70
     1
102
RTVSPropertyOp6
 70
     1
102
RTVSPropertyOp7
 70
     1
102
RTVSPropertyOp8
 70
     1
102
RTVSPropertyOp9
 70
     1
102
RTVSPropertyOp10
 70
     1
102
RTVSPropertyOp11
 70
     1
102
RTVSPropertyOp12
 70
     1
102
RTVSPropertyOp13
 70
     1
102
RTVSPropertyOp14
 70
     1
102
RTVSPropertyOp15
 70
     1
102
RTVSPropertyOp16
 70
     1
102
RTVSPropertyOp17
 70
     1
102
RTVSPropertyOp18
 70
     1
102
RTVSPropertyOp19
 70
     1
102
RTVSPropertyOp20
 70
     1
102
RTVSPropertyOp21
 70
     1
102
RTVSPropertyOp22
 70
     1
102
RTVSPropertyOp23
 70
     1
102
RTVSPropertyOp24
 70
     1
102
RTVSPropertyOp25
 70
     1
102
RTVSPropertyOp26
 70
     1
102
RTVSPropertyOp27
 70
     1
  0
XRECORD
  5
2E2
102
{ACAD_REACTORS
330
2E1
102
}
330
2E1
100
AcDbXrecord
280
     1
102
RTVSPropertyOp0
 70
     1
102
RTVSPropertyOp1
 70
     1
102
RTVSPropertyOp2
 70
     1
102
RTVSPropertyOp3
 70
     1
102
RTVSPropertyOp4
 70
     1
102
RTVSPropertyOp5
 70
     1
102
RTVSPropertyOp6
 70
     1
102
RTVSPropertyOp7
 70
     1
102
RTVSPropertyOp8
 70
     1
102
RTVSPropertyOp9
 70
     1
102
RTVSPropertyOp10
 70
     1
102
RTVSPropertyOp11
 70
     1
102
RTVSPropertyOp12
 70
     1
102
RTVSPropertyOp13
 70
     1
102
RTVSPropertyOp14
 70
     1
102
RTVSPropertyOp15
 70
     1
102
RTVSPropertyOp16
 70
     1
102
RTVSPropertyOp17
 70
     1
102
RTVSPropertyOp18
 70
     1
102
RTVSPropertyOp19
 70
     1
102
RTVSPropertyOp20
 70
     1
102
RTVSPropertyOp21
 70
     1
102
RTVSPropertyOp22
 70
     1
102
RTVSPropertyOp23
 70
     1
102
RTVSPropertyOp24
 70
     1
102
RTVSPropertyOp25
 70
     1
102
RTVSPropertyOp26
 70
     1
102
RTVSPropertyOp27
 70
     1
  0
XRECORD
  5
2C6
102
{ACAD_REACTORS
330
2C5
102
}
330
2C5
100
AcDbXrecord
280
     1
102
RTVSPropertyOp0
 70
     1
102
RTVSPropertyOp1
 70
     1
102
RTVSPropertyOp2
 70
     1
102
RTVSPropertyOp3
 70
     1
102
RTVSPropertyOp4
 70
     1
102
RTVSPropertyOp5
 70
     1
102
RTVSPropertyOp6
 70
     1
102
RTVSPropertyOp7
 70
     1
102
RTVSPropertyOp8
 70
     1
102
RTVSPropertyOp9
 70
     1
102
RTVSPropertyOp10
 70
     1
102
RTVSPropertyOp11
 70
     1
102
RTVSPropertyOp12
 70
     1
102
RTVSPropertyOp13
 70
     1
102
RTVSPropertyOp14
 70
     1
102
RTVSPropertyOp15
 70
     1
102
RTVSPropertyOp16
 70
     1
102
RTVSPropertyOp17
 70
     1
102
RTVSPropertyOp18
 70
     1
102
RTVSPropertyOp19
 70
     1
102
RTVSPropertyOp20
 70
     1
102
RTVSPropertyOp21
 70
     1
102
RTVSPropertyOp22
 70
     1
102
RTVSPropertyOp23
 70
     1
102
RTVSPropertyOp24
 70
     1
102
RTVSPropertyOp25
 70
     1
102
RTVSPropertyOp26
 70
     1
102
RTVSPropertyOp27
 70
     1
  0
XRECORD
  5
2C8
102
{ACAD_REACTORS
330
2C7
102
}
330
2C7
100
AcDbXrecord
280
     1
102
RTVSPropertyOp0
 70
     1
102
RTVSPropertyOp1
 70
     1
102
RTVSPropertyOp2
 70
     1
102
RTVSPropertyOp3
 70
     1
102
RTVSPropertyOp4
 70
     1
102
RTVSPropertyOp5
 70
     1
102
RTVSPropertyOp6
 70
     1
102
RTVSPropertyOp7
 70
     1
102
RTVSPropertyOp8
 70
     1
102
RTVSPropertyOp9
 70
     1
102
RTVSPropertyOp10
 70
     1
102
RTVSPropertyOp11
 70
     1
102
RTVSPropertyOp12
 70
     1
102
RTVSPropertyOp13
 70
     1
102
RTVSPropertyOp14
 70
     1
102
RTVSPropertyOp15
 70
     1
102
RTVSPropertyOp16
 70
     1
102
RTVSPropertyOp17
 70
     1
102
RTVSPropertyOp18
 70
     1
102
RTVSPropertyOp19
 70
     1
102
RTVSPropertyOp20
 70
     1
102
RTVSPropertyOp21
 70
     1
102
RTVSPropertyOp22
 70
     1
102
RTVSPropertyOp23
 70
     1
102
RTVSPropertyOp24
 70
     1
102
RTVSPropertyOp25
 70
     1
102
RTVSPropertyOp26
 70
     1
102
RTVSPropertyOp27
 70
     1
  0
XRECORD
  5
2CA
102
{ACAD_REACTORS
330
2C9
102
}
330
2C9
100
AcDbXrecord
280
     1
102
RTVSPropertyOp0
 70
     1
102
RTVSPropertyOp1
 70
     1
102
RTVSPropertyOp2
 70
     1
102
RTVSPropertyOp3
 70
     1
102
RTVSPropertyOp4
 70
     1
102
RTVSPropertyOp5
 70
     1
102
RTVSPropertyOp6
 70
     1
102
RTVSPropertyOp7
 70
     1
102
RTVSPropertyOp8
 70
     1
102
RTVSPropertyOp9
 70
     1
102
RTVSPropertyOp10
 70
     1
102
RTVSPropertyOp11
 70
     1
102
RTVSPropertyOp12
 70
     1
102
RTVSPropertyOp13
 70
     1
102
RTVSPropertyOp14
 70
     1
102
RTVSPropertyOp15
 70
     1
102
RTVSPropertyOp16
 70
     1
102
RTVSPropertyOp17
 70
     1
102
RTVSPropertyOp18
 70
     1
102
RTVSPropertyOp19
 70
     1
102
RTVSPropertyOp20
 70
     1
102
RTVSPropertyOp21
 70
     1
102
RTVSPropertyOp22
 70
     1
102
RTVSPropertyOp23
 70
     1
102
RTVSPropertyOp24
 70
     1
102
RTVSPropertyOp25
 70
     1
102
RTVSPropertyOp26
 70
     1
102
RTVSPropertyOp27
 70
     1
  0
XRECORD
  5
2CC
102
{ACAD_REACTORS
330
2CB
102
}
330
2CB
100
AcDbXrecord
280
     1
102
RTVSPropertyOp0
 70
     1
102
RTVSPropertyOp1
 70
     1
102
RTVSPropertyOp2
 70
     1
102
RTVSPropertyOp3
 70
     1
102
RTVSPropertyOp4
 70
     1
102
RTVSPropertyOp5
 70
     1
102
RTVSPropertyOp6
 70
     1
102
RTVSPropertyOp7
 70
     1
102
RTVSPropertyOp8
 70
     1
102
RTVSPropertyOp9
 70
     1
102
RTVSPropertyOp10
 70
     1
102
RTVSPropertyOp11
 70
     1
102
RTVSPropertyOp12
 70
     1
102
RTVSPropertyOp13
 70
     1
102
RTVSPropertyOp14
 70
     1
102
RTVSPropertyOp15
 70
     1
102
RTVSPropertyOp16
 70
     1
102
RTVSPropertyOp17
 70
     1
102
RTVSPropertyOp18
 70
     1
102
RTVSPropertyOp19
 70
     1
102
RTVSPropertyOp20
 70
     1
102
RTVSPropertyOp21
 70
     1
102
RTVSPropertyOp22
 70
     1
102
RTVSPropertyOp23
 70
     1
102
RTVSPropertyOp24
 70
     1
102
RTVSPropertyOp25
 70
     1
102
RTVSPropertyOp26
 70
     1
102
RTVSPropertyOp27
 70
     1
  0
XRECORD
  5
2E0
102
{ACAD_REACTORS
330
2DF
102
}
330
2DF
100
AcDbXrecord
280
     1
102
RTVSPropertyOp0
 70
     1
102
RTVSPropertyOp1
 70
     1
102
RTVSPropertyOp2
 70
     1
102
RTVSPropertyOp3
 70
     1
102
RTVSPropertyOp4
 70
     1
102
RTVSPropertyOp5
 70
     1
102
RTVSPropertyOp6
 70
     1
102
RTVSPropertyOp7
 70
     1
102
RTVSPropertyOp8
 70
     1
102
RTVSPropertyOp9
 70
     1
102
RTVSPropertyOp10
 70
     1
102
RTVSPropertyOp11
 70
     1
102
RTVSPropertyOp12
 70
     1
102
RTVSPropertyOp13
 70
     1
102
RTVSPropertyOp14
 70
     1
102
RTVSPropertyOp15
 70
     1
102
RTVSPropertyOp16
 70
     1
102
RTVSPropertyOp17
 70
     1
102
RTVSPropertyOp18
 70
     1
102
RTVSPropertyOp19
 70
     1
102
RTVSPropertyOp20
 70
     1
102
RTVSPropertyOp21
 70
     1
102
RTVSPropertyOp22
 70
     1
102
RTVSPropertyOp23
 70
     1
102
RTVSPropertyOp24
 70
     1
102
RTVSPropertyOp25
 70
     1
102
RTVSPropertyOp26
 70
     1
102
RTVSPropertyOp27
 70
     1
  0
XRECORD
  5
2D6
102
{ACAD_REACTORS
330
2D5
102
}
330
2D5
100
AcDbXrecord
280
     1
102
RTVSPropertyOp0
 70
     1
102
RTVSPropertyOp1
 70
     1
102
RTVSPropertyOp2
 70
     1
102
RTVSPropertyOp3
 70
     1
102
RTVSPropertyOp4
 70
     1
102
RTVSPropertyOp5
 70
     1
102
RTVSPropertyOp6
 70
     1
102
RTVSPropertyOp7
 70
     1
102
RTVSPropertyOp8
 70
     1
102
RTVSPropertyOp9
 70
     1
102
RTVSPropertyOp10
 70
     1
102
RTVSPropertyOp11
 70
     1
102
RTVSPropertyOp12
 70
     1
102
RTVSPropertyOp13
 70
     1
102
RTVSPropertyOp14
 70
     1
102
RTVSPropertyOp15
 70
     1
102
RTVSPropertyOp16
 70
     1
102
RTVSPropertyOp17
 70
     1
102
RTVSPropertyOp18
 70
     1
102
RTVSPropertyOp19
 70
     1
102
RTVSPropertyOp20
 70
     1
102
RTVSPropertyOp21
 70
     1
102
RTVSPropertyOp22
 70
     1
102
RTVSPropertyOp23
 70
     1
102
RTVSPropertyOp24
 70
     1
102
RTVSPropertyOp25
 70
     1
102
RTVSPropertyOp26
 70
     1
102
RTVSPropertyOp27
 70
     1
  0
XRECORD
  5
2DE
102
{ACAD_REACTORS
330
2DD
102
}
330
2DD
100
AcDbXrecord
280
     1
102
RTVSPropertyOp0
 70
     1
102
RTVSPropertyOp1
 70
     1
102
RTVSPropertyOp2
 70
     1
102
RTVSPropertyOp3
 70
     1
102
RTVSPropertyOp4
 70
     1
102
RTVSPropertyOp5
 70
     1
102
RTVSPropertyOp6
 70
     1
102
RTVSPropertyOp7
 70
     1
102
RTVSPropertyOp8
 70
     1
102
RTVSPropertyOp9
 70
     1
102
RTVSPropertyOp10
 70
     1
102
RTVSPropertyOp11
 70
     1
102
RTVSPropertyOp12
 70
     1
102
RTVSPropertyOp13
 70
     1
102
RTVSPropertyOp14
 70
     1
102
RTVSPropertyOp15
 70
     1
102
RTVSPropertyOp16
 70
     1
102
RTVSPropertyOp17
 70
     1
102
RTVSPropertyOp18
 70
     1
102
RTVSPropertyOp19
 70
     1
102
RTVSPropertyOp20
 70
     1
102
RTVSPropertyOp21
 70
     1
102
RTVSPropertyOp22
 70
     1
102
RTVSPropertyOp23
 70
     1
102
RTVSPropertyOp24
 70
     1
102
RTVSPropertyOp25
 70
     1
102
RTVSPropertyOp26
 70
     1
102
RTVSPropertyOp27
 70
     1
  0
ENDSEC
  0
EOF
